>
 >
Tribute To Elmore

Tribute To Elmore Guitar Tabs

Yardbirds - Tribute To Elmore chords, tabs, tablatures, lyrics

Guitar lessons | Add/correct | Request | Top 50 tabs Artists:  A B C D E F G H I J K L M N O P Q R S T U V W X Y Z 0-9

Tribute To Elmore Guitar Tabs – Yardbirds

CD, Sheet music, Poster

Do you like Tribute To Elmore? Share with your friends now
Tabs
Tribute to Elmore - Clapton / Page 
(The Yardbirds)
I heard this somg on some blues collection cd but its great.
Itīs just instrumental but great to learn for impress or to improve in playing blues.........
Here it is:

Part 1:
[------------------------------------------------]
[------------------------------------------------]
[--12s14-14-14--14-14-14--14-14-14--------14-----]2x
[--12s14-14-14--14-14-14--14-14-14--12s14--------]
[--------------------------------------------12~-]
[------------------------------------------------]

[------------------]     [---------------------]
[------------------]     [---------------------]
[--12s14----14-----]2x   [---------------------]
[--12s14-14----12~-]     [--12s14-12----12-----]
[------------------]     [-----------15----15--]
[------------------]     [---------------------]

[-------------------------------------------------------]
[-------------------------------------------------------]
[--12s14-14-14--12s14-14-14--12s14-14-14--------14------]
[--12s14-14-14--12s14-14-14--12s14-14-14--12s14---------]
[--------------------------------------------------12~--]
[-------------------------------------------------------]

[----------------------------]
[----------------------------]
[--------------------14------]
[--12s14-12----12----14-12~--]
[-----------15---------------]
[-----------------12---------]

[---------------------------------------------]
[-----14----12--------------------------------]
[--------14----14-12-------------------12s14--]
[--14----------------15-14-12-14-10-10--------]
[---------------------------------------------]
[---------------------------------------------]

[----------------------------------------------]
[----------------------------------------------]
[--------14--------14--------14----------------]
[--11-14-----12-14-----13-14----14~--14-12-14--]
[----------------------------------------------]
[----------------------------------------------]


Part 2:
[------------------] [------------------------------------------------------]
[------------------] [------------------------------------------------------]
[--12s14-17-14-17--] [------------------------------------------------------]
[------------------] [--12s14-14-12--12h14p12s10----12-10-----10-12-10------]
[------------------] [---------------------------12-------12----------------]
[------------------] [-------------------------------------------------12~--]

[------------------] [------------------------------------]
[--------17-17-----] [------------------------------------]
[--12s14-------17~-] [--------14-16-17-16-14-16----14-14~-]
[------------------] [--12s14-------------------16--------]
[------------------] [------------------------------------]
[------------------] [------------------------------------]

[--12s15--12----------------------] [---------------------]
[------------15-13b(1/2)r---------] [---------------------]
[--------------------------14-11--] [--16p14----14-16s18~-]
[---------------------------------] [--------16-----------]
[---------------------------------] [---------------------]
[---------------------------------] [---------------------]

[-------------------------------]
[-------------------------------]
[-------------------------------]
[--12s14-12----12-14------------]
[-----------15-------15-12------]
[--------------------------12-~-]

[------------------------------------] [--12-------------------------------------]
[--------------12s14-----------------] [-----15-13-15-----13-15-13----------13\--]
[--------11-14-------------------14--] [--------------14-----------14-12h14-14\--]
[--14-14-------------14-12-14-12-14--] [-----------------------------------------]
[------------------------------------] [-----------------------------------------]
[------------------------------------] [-----------------------------------------]

[--------------------------------------------------]
[--------------------------------------------------]
[-----------------------------------/-9--9--9------]
[--12s14-12----12-14----------------/11-11-11------]
[-----------15-------15b(1/2)----------------------]
[-----------------------------12---------------12~-]

Part 3:
[--15s17--15s17-17-17--15s17-17-17--15s17-15-------------15s17--]
[--------------------------------------------17-15--------------]
[--------------------------------------------------17-14--------]
[---------------------------------------------------------------]
[---------------------------------------------------------------]
[---------------------------------------------------------------]

[--15s17-17-17--15s17-17-17--15s17-15--------------------]
[-------------------------------------17-15-------15s17--]
[-------------------------------------------17-14--------]
[--------------------------------------------------------]
[--------------------------------------------------------]
[--------------------------------------------------------]

[----------------------------15s17~-] [-----------------------------------]
[--15p13----15s17~--15p13-----------] [-----------------------------------]
[--------14---------------14--------] [------------12---------------------]
[-----------------------------------] [---------12-------12-14------------]
[-----------------------------------] [---12s14-------14--------15-12-----]
[-----------------------------------] [-------------------------------12~-]

[---------------------------------------------]
[-----14--------------------------------------]
[--------14-12----------------12----12--------]
[--14----------14-12-(12)s14-----14----14s12--]
[---------------------------------------------]
[---------------------------------------------]




[-----------12s14--12---------------------------------------------]
[---------------------15-13---------------------------------------]
[--------12------------------14-------14-16b(1/2)r-p16p14----14~--]
[--12s14------------------------14-16---------------------16------]
[-----------------------------------------------------------------]
[-----------------------------------------------------------------]

[---------------------------------------------]
[---------------------------------------------]
[--12----14-12h14p12--------------------------]
[-----14-------------14-12-10----10----10-----]
[-----------------------------12----12--------]
[-----------------------------------------12~-]


Part 4:
[---------------------------------------------------------]
[---------------------------------------------------------]
[--12s14-14--14-14-14--14-14-14--------14--------9-11--9--]
[--12s14-14--14-14-14--14-14-14--12s14----------11-13-11--]
[-----------------------------------------12--------------]
[---------------------------------------------------------]

[-----------------------------------------------------------------]
[-----------------------------------------------------------------]
[--12s14-14-14--14-14-14--14-14-14--12s14-14--12------------------]
[--12s14-14-14--14-14-14--14-14-14---------------14-12-10s12--10--]
[-----------------------------------------------------------------]
[-----------------------------------------------------------------]

[--------------------------------------------------------------------------]
[--------------------------------------------------------------------------]
[-------------------------------------------------12s14----14--------------]
[--10----10---12s14-12----12----------------------12s14-14----12s10--------]
[-----12---------------15----12-15b(1/2)r-12------------------------12-----]
[--------------------------------------------12------------------------12~-]

[---------12s15---12--------------------------]
[--------------------15-13-12-------13--------]
[-----14----------------------14-11----14-11--]
[--12-----------------------------------------]
[---------------------------------------------]
[---------------------------------------------]

[--15s17-17--15s17-17-15---------------------]
[------------------------17-15---------------]
[------------------------------17b(1/2)r-14--]
[--------------------------------------------]
[--------------------------------------------]
[--------------------------------------------]

[----------14\---][]
[----------14\---][]
[--15-14---14\---][]
[--15-14---14\---][]
[----------------][]
[----------------][]





Comments


Popular Yardbirds tabs & chords
I Wish You Would Bass Tabs
Train Kept A Rollin' Bass Tabs
Over Under Sideways Down Chords
Shapes Of Things Chords
For Your Love Drum Tabs
Happenings Ten Years Time Ago 1 Tabs
Im Not Talkin Tabs
Mr Your A Better Man Than I Tabs
Mr Youre A Better Man Than I Tabs
Mr Your A Better Man Than I Ukulele


Song lyrics



↑ Back to top | Tablatures and chords are parodies/interpretations of the original songs. You may use it for private study, scholarship, research or language learning purposes only
© 2014 AZChords.com Contact us | Privacy policy | DMCA | Add/correct tabs | Request tabs | Top 50 tabs