» » »

Pounds And Stomps Bass tabs (ver.1)

Artists:  A B C D E F G H I J K L M N O P Q R S T U V W X Y Z # 

Pounds And Stomps Bass tabs (ver.1)

Yardbirds
Rating:
0/5 (0 votes)

Hard to play? Try these video lessons and learn fast.
                Tuning: E-A-D-G

		*Verse 1*

|---------|------4-----|
|---------|--------4---|
|-2-2-2-2-|-2-2------2-|
|---------|------------|

|---------|------4-----|
|---------|--------4---|
|-2-2-0-2-|-2-2------2-|
|---------|------------|

		*Verse 2 + Outro*

|--------------------------|
|--------------------------|
|-2-3------0-2-5---2-3-----|
|-------0----------------0-|

				...Red Hair Jimmy ...
            
Hard to play? Try these video lessons and learn fast. | Correct




comments powered by Disqus
↑ Back to top | Tablatures and chords are parodies/interpretations of the original songs. You may use it for private study, scholarship, research or language learning purposes only