» » »

Yardbirds, Good Morning Little Schoolgirl Bass tabs (ver.1)

Artists:  A B C D E F G H I J K L M N O P Q R S T U V W X Y Z # 

Good Morning Little Schoolgirl Bass tabs (ver.1)

Yardbirds Tabs
 Rating:
4/5 (4 votes)
Good Morning Little Schoolgirl lessons Tabs too difficult? Try these video lessons and learn fast
1
                Good Morning, Little Schoolgirl
The Yardbirds
Written by Sonny Boy Williamson; released as a single with "I Ain't Got You" 
as the B-side.

Intro:
G|------- ------- ------- -------|------- ------- ------- -------|
D|-------------------------------|--------------------9---7---5--|
A|-------------------------------|-------------------------------|
E|-------------------------------|-------------------------------|



G|------- ------- ------- -------|------- ------- ------- -------|
D|-------------------------------|--------------------9---7---5--|
A|7---7---7---7---7---7---7---7--|7---7---7---7---7--------------|
E|-------------------------------|-------------------------------|
                                                      O - o - o-


G|------- ------- ------- -------|------- ------- ----9-- 7---5--|
D|-------------------------------|-------------------------------|
A|7---7---7---7---7---7---7---7--|7---7---7---7---7--------------|
E|-------------------------------|-------------------------------|
  o - oh,                                             O - o - o-


G|------- ------- ------- -------|------- ------- ----4-- -------|
D|-------------------------------|------------------------7---5--|
A|-------------------------------|-------------------------------|
E|5---5---5---5---5---5---5---5--|5---5---5---5------------------|
  o - oh,                                             o - o - o-


G|------- ------- ------- -------|------- ------- ------- -------|
D|-------------------------------|--------------------9---7---5--|
A|7---7---7---7---7---7---7---7--|7---7---7---7---7--------------|
E|-------------------------------|-------------------------------|
  o - oh,                                             O - o - o-


G|------- ------- ------- -------|------- ------- ----4-- -------|
D|-------------------------------|------------------------7---5--|
A|-------------------------------|-------------------------------|
E|7---7---7---7-------7----------|5---5---5---5------------------|
  o - oh,                     o - o - oh,             o - o - o-


G|------- ------- ------- -------|------- ------- ------- -------|
D|-------------------------------|--------------------9---7---5--|
A|7---7---7---7---7---7---7---7--|7---7---7---7------------------|
E|-------------------------------|-------------------------------|
  o - oh.

Verse:
G|------- ------- ------- -------|------- ------- ------- -------|
D|-------------------------------|-------------------------------|
A|7---7---7---7---7---7---7---7--|-------------------------------|
E|-------------------------------|5---5---5---5---5---5---5---5--|
          Good mor - ning, little school  -   girl,


G|------- ------- ------- -------|------- ------- ------- -------|
D|-------------------------------|-------------------------------|
A|7---7---7---7---7---7---7---7--|-------------------------------|
E|-------------------------------|5---5---5---5---5---5---5---5--|
          good mor - ning, little school  -   girl,


G|------- ------- ------- -------|------- ------- ------- -------|
D|-------------------------------|-------------------------------|
A|-------------------------------|-------------------------------|
E|5---5---5---5---5---5---5---5--|5---5---5---5---5---5---5---5--|
          Can I           go      home        with,


G|------- ------- ------- -------|------- ------- ------- -------|
D|-------------------------------|-------------------------------|
A|-------------------------------|-------------------------------|
E|5---5---5---5---5---5---5---5--|5---5---5---5---5---5---5---5--|
      oh, won't   let me  go      home    with you,   So  I   can
              you

G|------- ------- ------- -------|------- ------- ------- -------|
D|-------------------------------|-------------------------------|
A|-------------------------------|-------------------------------|
E|7---7---7---7---7---7---7---7--|5---5---5---5---5---5---5---6--|
  love,   love,                   squeeeze, squeeze,


G|------- ------- ------- -------|------- ------- ------- -------|
D|-------------------------------|-------------------------------|
A|-------------------------------|-------------------------------|
E|7---7---7---7---7---7---7---7--|5---5---5---5---5---5---5---5--|
          if  you let me, I   can tease   you, ba  -  by,


G|------- ------- ------- -------|------- ------- ------- -------|
D|-------------------------------|-------------------------------|
A|-------------------------------|-------------------------------|
E|7---7---7---7---7---7---7---7--|5---5---5---5---5---5---5---6--|
          Hey,                    hey, hey,   hey,


G|------- ------- ------- -------|------- ------- ------- -------|
D|-------------------------------|-------------------------------|
A|-------------------------------|-------------------------------|
E|7---7---7---7---7---7---7---7--|5---5---5---5---5---5---5---5--|
          hey,        hey,    hey,                hey,


G|------- ------- ------- -------|------- ------- ------- -------|
D|-------------------------------|--------------------9---7---5--|
A|7---7---7---7---7---7---7---7--|7---7---7---7------------------|
E|-------------------------------|-------------------------------|
  yeah!

Verse:
G|------- ------- ------- -------|------- ------- ------- -------|
D|-------------------------------|-------------------------------|
A|7---7---7---7---7---7---7---7--|----------------------------5--|
E|-------------------------------|5---5---5---5---5---5---5------|
          Let's dance, little     school  -   girl,


G|------- ------- ------- -------|------- ------- ------- -------|
D|-------------------------------|-------------------------------|
A|7---7---7---7---7---7---7---7--|-------------------------------|
E|-------------------------------|5---5---5---5---5---5---5---5--|
          let's dance, little     school  -   girl,


G|------- ------- ------- -------|------- ------- ------- -------|
D|-------------------------------|-------------------------------|
A|-------------------------------|-------------------------------|
E|5---5---5---5---5---5---5---5--|5---5---5---5---5---5---5---5--|
          Won't   let me take you to      the hop,    hop,
              you

G|------- ------- ------- -------|------- ------- ------- -------|
D|-------------------------------|-------------------------------|
A|-------------------------------|-------------------------------|
E|5---5---5---5---5---5---5---5--|5---5---5---5---5---5---5---5--|
          have a  party  at  the so  -   da  shop,   So  we  can


G|------- ------- ------- -------|------- ------- ------- -------|
D|-------------------------------|-------------------------------|
A|-------------------------------|-------------------------------|
E|7---7---7---7---7---7---7---7--|5---5---5---5---5---5---5---5--|
  do      the twist,              do      the stroll, oh,


G|------- ------- ------- -------|------- ------- ------- -------|
D|-------------------------------|-------------------------------|
A|-------------------------------|-------------------------------|
E|7---7---7---7---7---7---7---7--|5---5---5---5---5---5---5---5--|
          to  the music   of  the rock and roll,  oh,


G|------- ------- ------- -------|------- ------- ------- -------|
D|-------------------------------|-------------------------------|
A|-------------------------------|-------------------------------|
E|7---7---7---7---7---7---7---7--|5---5---5---5---5---5---5---5--|
          Hey,                    hey, hey,   hey,


G|------- ------- ------- -------|------- ------- ------- -------|
D|-------------------------------|-------------------------------|
A|-------------------------------|----------------------------5--|
E|7---7---7---7---7---7---7---7--|5---5---5---5---5---5---5------|
          hey,    hey, hey,   hey,                hey,


G|------- ------- ------- -------|------- ------- ------- -------|
D|-------------------------------|--------------------9---7---5--|
A|7---7---7---7---7---7---7---7--|7---7---7---7------------------|
E|-------------------------------|-------------------------------|
  yeah!                                               O - o - o-

Break (solo):
G|------- ------- ------- -------|------- ------- ------- -------|
D|-------------------------------|--------------------9---7---5--|
A|7---7---7---7---7---7---7---7--|7---7---7---7---7--------------|
E|-------------------------------|-------------------------------|
  o - oh,                                             o - o - o-


G|------- ------- ------- -------|------- ------- ----9-- 7---5--|
D|-------------------------------|-------------------------------|
A|7---7---7---7---7---7---7---7--|7---7---7---7------------------|
E|-------------------------------|-------------------------------|
  o - oh,                                             O - o - o-


G|------- ------- ------- -------|------- ------- ------- -------|
D|7---7---7---7---7---7---7---7--|7---7---7---7-------9---7---5--|
A|-------------------------------|-------------------------------|
E|-------------------------------|-------------------------------|
  o - oh,                                             o - o - o-


G|------- ------- ------- -------|------- ------- ------- -------|
D|-------------------------------|--------------------9---7---5--|
A|7---7---7---7---7---7---7---7--|7---7---7---7------------------|
E|-------------------------------|-------------------------------|
  o - oh,                                             O - o - o-


G|------- ------- ------- -------|------- ------- ----4-- -------|
D|-------------------------------|------------------------7---5--|
A|-------------------------------|-------------------------------|
E|7---7---7---7---7---7---7---7--|5---5---5---5------------------|
  o - oh,                     o - o - oh,             O - o - o-


G|------- ------- ------- -------|------- ------- ------- -------|
D|-------------------------------|--------------------9---7---5--|
A|7---7---7---7---7---7---7---7--|7---7---7---7------------------|
E|-------------------------------|-------------------------------|
  o - oh.

Verse:
G|------- ------- ------- -------|------- ------- ------- -------|
D|-------------------------------|-------------------------------|
A|7---7---7---7---7---7---7---7--|----------------------------5--|
E|-------------------------------|5---5---5---5---5---5---5------|
          Good mor - ning, little school  -   girl,


G|------- ------- ------- -------|------- ------- ------- -------|
D|-------------------------------|-------------------------------|
A|7---7---7---7---7---7---7---7--|-------------------------------|
E|-------------------------------|5---5---5---5---5---5---5---5--|
          good mor - ning, little school  -   girl,


G|------- ------- ------- -------|------- ------- ------- -------|
D|-------------------------------|-------------------------------|
A|-------------------------------|-------------------------------|
E|5---5---5---5---5---5---5---5--|5---5---5---5---5---5---5---5--|
          Can I           go      home        with,


G|------- ------- ------- -------|------- ------- ------- -------|
D|-------------------------------|-------------------------------|
A|-------------------------------|-------------------------------|
E|5---5---5---5---5---5---5---5--|5---5---5---5---5---5---5---5--|
      oh, won't   let me  go      home    with you,   So  I   can
              you

G|------- ------- ------- -------|------- ------- ------- -------|
D|-------------------------------|-------------------------------|
A|-------------------------------|-------------------------------|
E|7---7---7---7---7---7---7---7--|5---5---5---5---5---5---5---5--|
  love,   love,                   squeeeze, squeeze,


G|------- ------- ------- -------|------- ------- ------- -------|
D|-------------------------------|-------------------------------|
A|-------------------------------|-------------------------------|
E|7---7---7---7---7---7---7---7--|5---5---5---5---5---5---5---5--|
          if  you let me, I   can tease   you, ba  -  by,


G|------- ------- ------- -------|------- ------- ------- -------|
D|-------------------------------|-------------------------------|
A|-------------------------------|-------------------------------|
E|7---7---7---7---7---7---7---7--|5---5---5---5---5---5---5---5--|
          Hey,                    hey, hey,   hey,


G|------- ------- ------- -------|------- ------- ------- -------|
D|-------------------------------|-------------------------------|
A|-------------------------------|----------------------------5--|
E|7---7---7---7---7---7---7---7--|5---5---5---5---5---5---5------|
          hey,        hey,    hey,                hey,


G|------- ------- ------- -------|------- ------- ------- -------|
D|-------------------------------|--------------------9---7---5--|
A|7---7---7---7---7---7---7---7--|7---7---7---7---7--------------|
E|-------------------------------|-------------------------------|
  yeah!

Verse:
G|------- ------- ------- -------|------- ------- ------- -------|
D|-------------------------------|-------------------------------|
A|7---7---7---7---7---7---7---7--|----------------------------5--|
E|-------------------------------|5---5---5---5---5---5---5------|
          Good mor - ning, little school  -   girl,


G|------- ------- ------- -------|------- ------- ------- -------|
D|-------------------------------|-------------------------------|
A|7---7---7---7---7---7---7---7--|-------------------------------|
E|-------------------------------|5---5---5---5---5---5---5---5--|
          good mor - ning, little school  -   girl,


G|------- ------- ------- -------|------- ------- ------- -------|
D|-------------------------------|-------------------------------|
A|-------------------------------|-------------------------------|
E|5---5---5---5---5---5---5---5--|5---5---5---5---5---5---5---5--|
          Can I           go      home        with,


G|------- ------- ------- -------|------- ------- ------- -------|
D|-------------------------------|-------------------------------|
A|-------------------------------|-------------------------------|
E|5---5---5---5---5---5---5---5--|5---5---5---5---5---5---5---5--|
      oh, won't   let me  go      home    with you,
              you

G|------- ------- ------- -------|------- ------- ------- -------|
D|-------------------------------|-------------------------------|
A|-------------------------------|-------------------------------|
E|7---7---7---7---7---7---7---7--|5---5---5---5---5---5---5---5--|
          Tell your mama and your pa- pa  that I  love    you,


G|------- ------- ------- -------|------- ------- ------- -------|
D|-------------------------------|-------------------------------|
A|-------------------------------|-------------------------------|
E|7---7---7---7---7---7---7---7--|5---5---5---5---5---5---5---5--|
          tell    sisters and     brother that I love    you,
              your            your

G|------- ------- ------- -------|------- ------- ------- -------|
D|-------------------------------|-------------------------------|
A|-------------------------------|-------------------------------|
E|7---7---7---7---7---7---7---7--|5---5---5---5---5---5---5---5--|
          Hey,                    hey, hey,   hey,
repeat and fade out...

Please e-mail me for any corrections, or write a comment.
            
Submit corrections

comments powered by Disqus
↑ Back to top | Yardbirds Bass for Good Morning Little Schoolgirl. Lyrics for acoustic guitar and electric guitar. 1 Tablatures and chords are parodies/interpretations of the original songs. You may use it for private study, scholarship, research or language learning purposes only