>
 >
Boom Boom

Boom Boom Bass Tabs

Yardbirds - Boom Boom chords, tabs, tablatures, lyrics

Guitar lessons | Add/correct | Request | Top 50 tabs Artists:  A B C D E F G H I J K L M N O P Q R S T U V W X Y Z 0-9

Boom Boom Bass Tabs – Yardbirds

CD, Sheet music, Poster

Do you like Boom Boom? Share with your friends now
Bass TabsTabs
The Yardbirds
Written by John Lee Hooker; released as a single with "Honey In Your Hips" 
as the B-side

Intro:
G|------ ------ ------ ------|------ ------ ------ ------|
D|---------------------------|---------------------------|
A|---------------------------|---------------------------|
E|---------------------------|---------------------------|
 


G|------ ------ ------ 7-----|------ ------ ------ ------|
D|--------------9------------|---------------------------|
A|-------7-------------------|7--------------------------|
E|---------------------------|---------------------------|
 


G|------ ------ ------ 7-----|------ ------ ------ ------|
D|--------------9------------|---------------------------|
A|-------7-------------------|7--------------------------|
E|---------------------------|---------------------------|
 


G|------ ------ ------ ------|------ ------ ------ ------|
D|---------------------5-----|---------------------------|
A|--------------7------------|7--------------------------|
E|-------5-------------------|---------------------------|
 


G|------ ------ ------ 7-----|------ ------ ------ ------|
D|--------------9------------|---------------------------|
A|-------7-------------------|7--------------------------|
E|---------------------------|---------------------------|
 


G|------ ------ ------ ------|------ ------ ------ ------|
D|---------------------7-----|---------------------------|
A|--------------9------------|9--------------------------|
E|-------7-------------------|---------------------------|
 


G|------ ------ ------ 7-----|------ ------ ------ ------|
D|--------------9------------|---------------------------|
A|-------7-------------------|7--------------------------|
E|---------------------------|---------------------------|
                                     Boom,  boom,  boom,

Verse:
G|------ ------ ------ ------|------ ------ ------ ------|
D|---------------------------|---------------------------|
A|-------7------5------------|7--------------------------|
E|---------------------7-----|---------------------------|
  boom,                          I'm gonna  shoot  right
                                                you

G|------ ------ ------ ------|------ ------ ------ ------|
D|---------------------------|---------------------------|
A|-------7------5------------|7--------------------------|
E|---------------------7-----|---------------------------|
  down,                         I'll knock  off of your
                                         you

G|------ ------ ------ ------|------ ------ ------ ------|
D|---------------------------|---------------------------|
A|--------------3------5-----|7--------------------------|
E|-------5-------------------|---------------------------|
  feet,                          and take   home   with
                                         you

G|------ ------ ------ ------|------ ------ ------ ------|
D|---------------------------|---------------------------|
A|-------7------5------------|7--------------------------|
E|---------------------7-----|---------------------------|
  me.                           I'll put you in    my


G|------ ------ ------ ------|------ ------ ------ ------|
D|---------------------------|---------------------------|
A|--------------5------7-----|---------------------------|
E|-------7-------------------|7--------------------------|
  house,                             boom,  boom,  boom,


G|------ ------ ------ ------|------ ------ ------ ------|
D|---------------------------|---------------------------|
A|-------7------5------------|7--------------------------|
E|---------------------7-----|---------------------------|
  boom.                              Boom,  boom,  boom,

Verse:
G|------ ------ ------ ------|------ ------ ------ ------|
D|---------------------------|---------------------------|
A|-------7------5------------|7--------------------------|
E|---------------------7-----|---------------------------|
  boom,                              yeah,  yeah,  yeah,


G|------ ------ ------ ------|------ ------ ------ ------|
D|---------------------------|---------------------------|
A|-------7------5------------|7--------------------------|
E|---------------------7-----|---------------------------|
  yeah,                           I'd       love to see you


G|------ ------ ------ ------|------ ------ ------ ------|
D|-------7------5------------|7--------------------------|
A|---------------------7-----|---------------------------|
E|---------------------------|---------------------------|
  strapped,                          when   walking to
                                         you're

G|------ ------ ------ ------|------ ------ ------ ------|
D|---------------------------|---------------------------|
A|-------7------5------------|7--------------------------|
E|---------------------7-----|---------------------------|
  me.                            Oh, when   talking to
                                         you're

G|------ ------ ------ ------|------ ------ ------ ------|
D|-------9------7------------|9--------------------------|
A|---------------------9-----|---------------------------|
E|---------------------------|---------------------------|
  me,                                that   knocks me


G|------ ------ ------ ------|------ ------ ------ ------|
D|---------------------------|---------------------------|
A|----7--7---7--5------------|7--------------------6-----|
E|---------------------7-----|-------7------7------------|
  out.                 Yeah,  let's  go!

Break (solo):
G|------ ------ 7----- 9-----|------ ------ 7----- 9-----|
D|-------9-------------------|-------9-----------------9-|
A|7--------------------------|7--------------------------|
E|---------------------------|---------------------------|
 


G|------ ------ 7----- 9-----|------ ------ 7----- 9-----|
D|-------9-----------------9-|-------9-------------------|
A|7--------------------------|7--------------------------|
E|---------------------------|---------------------------|
 


G|------ ------ ------ ------|------ ------ ------ ------|
D|--------------5------7p5---|--------------5------7-----|
A|-------7-----------------7-|-------7-----------------7-|
E|5--------------------------|5--------------------------|
 


G|------ ------ 7----- 9-----|------ ------ 7----- 9-----|
D|-------9-------------------|-------9-------------------|
A|7--------------------------|7--------------------------|
E|---------------------------|---------------------------|
 


G|------ ------ ------ ------|------ ------ ------ ------|
D|--------------7------9p7---|--------------5------7p5---|
A|-------9-----------------9-|-------7-----------------7-|
E|7--------------------------|5--------------------------|
 


G|------ ------ 7----- 9-----|------ ------ ------ ------|
D|-------9-------------------|---------------------------|
A|7--------------------------|7--------------------------|
E|---------------------------|---------------------------|
                                     Boom,  boom,  boom,

Verse:
G|------ ------ ------ ------|------ ------ ------ ------|
D|---------------------------|---------------------------|
A|-------7------5------------|7--------------------------|
E|---------------------7-----|---------------------------|
  boom,                          you know I like it like


G|------ ------ ------ ------|------ ------ ------ ------|
D|---------------------------|---------------------------|
A|-------7------5------------|7--------------------------|
E|---------------------7-----|---------------------------|
  that,                              With   ba  -  by
                                         your

G|------ ------ ------ ------|------ ------ ------ ------|
D|-------7------5------------|7--------------------------|
A|---------------------7-----|---------------------------|
E|---------------------------|---------------------------|
  talk,                          oh, and the way   that you


G|------ ------ ------ ------|------ ------ ------ ------|
D|---------------------------|---------------------------|
A|-------7------5------------|7--------------------------|
E|---------------------7-----|---------------------------|
  walk,                          You know,  knocks right
                                         it     me

G|------ ------ ------ ------|------ ------ ------ ------|
D|-------9------7------------|9--------------------------|
A|---------------------9-----|---------------------------|
E|---------------------------|---------------------------|
  down,                           knocks me off of my


G|------ ------ ------ ------|------ ------ ------ ------|
D|---------------------------|---------------------------|
A|----7--7------5------------|7--------------------------|
E|---------------------7-----|---------------------------|
  feet.                              Boom,  boom,  boom,

Verse:
G|------ ------ ------ ------|------ ------ ------ ------|
D|---------------------------|---------------------------|
A|-------7------5------------|7--------------------------|
E|---------------------7-----|---------------------------|
  boom,                              yeah,  yeah,  yeah,


G|------ ------ ------ ------|------ ------ ------ ------|
D|---------------------------|---------------------------|
A|-------7------5------------|7--------------------------|
E|---------------------7-----|---------------------------|
  yeah,                          Oh, oh,    oh,    oh,


G|------ ------ ------ ------|------ ------ ------ ------|
D|-------7------5------------|7--------------------------|
A|---------------------7-----|---------------------------|
E|---------------------------|---------------------------|
  oh,                            oh, how,   how,   how,


G|------ ------ ------ ------|------ ------ ------ ------|
D|---------------------------|---------------------------|
A|-------7------5------------|7--------------------------|
E|---------------------7-----|---------------------------|
  how?                               Yeah,  yeah,  yeah,


G|------ ------ ------ ------|------ ------ ------ ------|
D|----9--9------7------------|9--------------------------|
A|---------------------9-----|---------------------------|
E|---------------------------|---------------------------|
  yeah,                              now,   now,   now,


G|------ ------ ------ ------|------ ------ ------ ------|
D|---------------------------|---------------------------|
A|-------7------5------------|7--------------------6-----|
E|---------------------7-----|-------7---7--9---9--------|
  now.

Break (solo):
G|------ ------ 7----- 9-----|------ ------ 7---7- 9---9-|
D|-------9-------------------|-------9---9---------------|
A|7--------------------------|7--------------------------|
E|---------------------------|---------------------------|
 


G|------ ------ 7----- 9p7---|------ ------ 7----- 9-----|
D|-------9-----------------9-|-------9-------------------|
A|7--------------------------|7--------------------------|
E|---------------------------|---------------------------|
 


G|------ ------ ------ ------|------ ------ ------ ------|
D|--------------5------7p5---|--------------5------7-----|
A|-------7-----------------7-|-------7---7-------------7-|
E|5--------------------------|5---5----------------------|
 


G|------ ------ 7----- 9p7---|------ ------ 7----- 9-----|
D|-------9-----------------9-|-------9-------------------|
A|7--------------------------|7--------------------------|
E|---------------------------|---------------------------|
 


G|------ ------ ------ ------|------ ------ ------ ------|
D|-----------7--7---7--9-----|--------------5------7-----|
A|-------9-----------------9-|-------7-----------------7-|
E|7---7----------------------|5--------------------------|
 


G|------ ------ ------ ------|------ ------ ------ ------|
D|-------9------9p7-5--------|---------------------------|
A|7--------------------7---5-|7-------------7------------|
E|---------------------------|---------------------------|
 
Please e-mail me for any corrections, or write a comment.





Comments


Popular Yardbirds tabs & chords
Chris Number Bass Tabs
For Your Love Bass Tabs
Pounds And Stomps Bass Tabs
What Do You Want Bass Tabs
Good Morning Little Schoolgirl Tabs
I'm A Man Tabs
Scratch My Back Tabs
Evil Hearted You Ukulele
Mr Your A Better Man Than I Ukulele
Pretty Girl Ukulele


Song lyrics



↑ Back to top | Tablatures and chords are parodies/interpretations of the original songs. You may use it for private study, scholarship, research or language learning purposes only
© 2014 AZChords.com Contact us | Privacy policy | DMCA | Add/correct tabs | Request tabs | Top 50 tabs