>
 >
Comptine Dun Autre Ete 1

Comptine Dun Autre Ete 1 Guitar Tabs

Yann Tiersen - Comptine Dun Autre Ete 1 chords, tabs, tablatures, lyrics

Guitar lessons | Add/correct | Request | Top 50 tabs Artists:  A B C D E F G H I J K L M N O P Q R S T U V W X Y Z 0-9

Comptine Dun Autre Ete 1 Guitar Tabs – Yann Tiersen

CD, Sheet music, Poster

Do you like Comptine Dun Autre Ete 1? Share with your friends now
TabsTabs v2
Comptine dun autre ete

Em                   G                     Bm                    D
-0--------0-----------------------------------------------------------------|
---0---0----0--0--3---------3---------3---------3--------3---------3--------|
-----0--------0-------4---4----4---4-----4---4----4---4----2---2----2----2--|
-2--------2--------0----5----0---5----0---4-----0---4---0----4----0---4-----|
----------------------------------------------------------------------------|
----------------------------------------------------------------------------|

----------------------------------------------------------------------------|
----------------------------------------------------------------------------|
----------454--------------------------454----------------------------------|
----545-----------454--575----424----------424------------------------------|
----------------------------------------------------------------------------|
----------------------------------------------------------------------------|

--0----------------2-----2----------3--0------3--------2------2--------------|
------0---3---0------0--------------0--0------0--3-----0--3------3-----------|
------------------------------2------------------0------------2--------------|
----------------------------------------------------------4--------4---------|
-----------------------------------------------------------------------------|
-----------------------------------------------------------------------------|


-------------------------------------------------7-----7------7------7-|
------12------12-----12------12----------------------------------------|
----9-------9-------9-------9-------9-----9----7-----7------7------7---|
--9-------9-------9-------9-------9---10----9------9------9------9-----|

------------------------------------------|
-------------7------7------7------7-------|
--7----7----4------4------4------4--------|
9----7----4------4------4------4----------|
------------------------------------------|
------------------------------------------|

----------------------------------------------------------------------------|
--------------10-----10-----10-----10---------------------------------------|
---4---4---7------7-------7------7-------7---7------------------------------|
-4---5---7------7-------7------7-------7---5--------------------------------|
----------------------------------------------------------------------------|
----------------------------------------------------------------------------|

-----787----------------787--------12-------10-------14------14----|
-878-----787-8108---757-----757-------12-------12-------12------10-|
-------------------------------------------------------------------|
-------------------------------------------------------------------|
-------------------------------------------------------------------|
-------------------------------------------------------------------|

--15--12------15-----------14---------14-------------------------------------|
--12--12------12--15-------12--15--------15----------------------------------|
------------------12------------------14-------------------------------------|
-------------------------------16--------16----------------------------------|
-----------------------------------------------------------------------------|
-----------------------------------------------------------------------------|

--------19---------19-------19-------19----------------|
----17---------17--------17-------17--------17-----17--|
-16--------16---------16-------16-------16-----17------|
-------------------------------------------------------|
-------------------------------------------------------|
-------------------------------------------------------|

--------19--------19--------19--------19----------------|
-----15--------15--------15--------15--------15-----15--|
16--------16--------16--------16--------16-----14-------|
--------------------------------------------------------|
--------------------------------------------------------|
--------------------------------------------------------|

---------14---------14---------14---------14--------------|
-----12---------12---------12---------12---------12----12-|
-11---------11---------11---------11---------11-----12----|
----------------------------------------------------------|
----------------------------------------------------------|
----------------------------------------------------------|

-12------------|
-12------------|
-12------------|
---------------|
---------------|
---------------|





Comments


Popular Yann Tiersen tabs & chords
Au-dessous Du Volcan Chords
La Parade Chords
Le Parapluie Chords
Les Jours Tristes Chords
Monochrome Chords
Comptine Dun Autre Ete Tabs
Au-dessous Du Volcan Ukulele
Dust Lane Ukulele
La Parade Ukulele
Le Parapluie Ukulele


Song lyrics



↑ Back to top | Tablatures and chords are parodies/interpretations of the original songs. You may use it for private study, scholarship, research or language learning purposes only
© 2014 AZChords.com Contact us | Privacy policy | DMCA | Add/correct tabs | Request tabs | Top 50 tabs