>
 >
Winds Of Change

Winds Of Change Guitar Tabs

Y And T - Winds Of Change chords, tabs, tablatures, lyrics

Guitar lessons | Add/correct | Request | Top 50 tabs Artists:  A B C D E F G H I J K L M N O P Q R S T U V W X Y Z 0-9

Winds Of Change Guitar Tabs – Y And T

CD, Sheet music, Poster

Do you like Winds Of Change? Share with your friends now
Tabs
Song Title: Winds of Change
Tuning: Standard

E||-----------------------|----------------0--------|
B||-----------------------|----------3--------3-----|
G||*----------------------|-------2-----2--------2--|
D||*----------------3--2--|----0--------------------|
A||-----------0--3--------|-------------------------|
E||-----------------------|-------------------------|


-----------------0--------|-----------------3--------|
-----------3--------3-----|--------------------3-----|
--------2-----2--------2--|-----------0-----------0--|
--2--3--------------------|--------2-----2-----------|
--------------------------|--2--3--------------------|
--------------------------|--------------------------|

-----3---------------||
-----3---------------||
-----0--------------*||
--2--0--------------*||
-----2---------------||
-----3---------------||

---------------------|---------------------|
---------------------|---------------------|
--3--------3---3-----|--5--------5---5-----|
--3--------3---3-----|--5--------5---5-----|
--1--------1---1-----|--3--------3---3-----|
---------------------|---------------------|


-----------------------|-----------------------|
-----------------------|-----------------------|
-----------------------|-----------------------|
----3----5--5--5--5----|----3----5--5--5--5----|
----3----5--5--5--5----|----3----5--5--5--5----|
----1/---3--3--3--3----|----1/---3--3--3--3----|


---------------------|---------------------|
---------------------|---------------------|
--3--------3---3-----|--5--------5---5-----|
--3--------3---3-----|--5--------5---5-----|
--1--------1---1-----|--3--------3---3-----|
---------------------|---------------------|

-----------------------|-----------------------|
-----------------------|-----------------------|
-----------------------|-----------------------|
----3----5--5--5--5----|----3----5--5--5--5----|
----3----5--5--5--5----|----3----5--5--5--5----|
----1/---3--3--3--3----|----1/---3--3--3--3----|

--------------------|--------------------|
--------------------|--------------------|
----3----------3----|--5--------5--------|
----3----------3----|--5--------5--------|
----1----------1----|--3--------3--------|
--------------------|--------------------|


---------------------|---------------------|
---------------------|---------------------|
--3--------3---3-----|--5--------5---5-----|
--3--------3---3-----|--5--------5---5-----|
--1--------1---1-----|--3--------3---3-----|
---------------------|---------------------|


-----------------------|-----------------------|
-----------------------|-----------------------|
-----------------------|-----------------------|
----3----5--5--5--5----|----3----5--5--5--5----|
----3----5--5--5--5----|----3----5--5--5--5----|
----1/---3--3--3--3----|----1/---3--3--3--3----|


--------------------|-------------------------|
--2--------3--------|--3----3--------3--------|
--2--------3--------|----------3--------3-----|
--2--------3--------|-------------3--------3--|
--0--------1--------|--1----------------------|
--------------------|-------------------------|


--------------------------|-------------------------|
--3--------3--------3-----|--2----2--------2--------|
-----3--------3--------3--|--2-------2--------2-----|
--------3--------3--------|--2----------2--------2--|
--------------------------|--0----------------------|
--------------------------|-------------------------|

--------------------|-----------------------|
--------------------|-----------------------|
------2----2--------|------5--7--7--7----7--|
------2----2--------|------5--7--7--7----7--|
------0----0--------|------3/-5--5--5----5--|
--------------------|-----------------------|


-------------------------|----------------------|
-------------------------|----------------------|
--2--2--5--7--7--7----7--|--5----5----3----3----|
--2--2--5--7--7--7----7--|--5----5----3----3----|
--0--0--3/-5--5--5----5--|--3----3----1----1----|
-------------------------|----------------------|


------------------------|-----------------------|
------------------------|-----------------------|
---------------------2--|----5----7--7--7--7----|
----------0-------2-----|----5----7--7--7--7----|
-------2-------0--------|----3/---5--5--5--5----|
--3---------------------|-----------------------|

-----------------------|----------------------|
-----------------------|----------------------|
----5----7--7--7--7----|--5----5----3----3----|
----5----7--7--7--7----|--5----5----3----3----|
----3/---5--5--5--5----|--3----3----1----1----|
-----------------------|----------------------|



------------------|--1--------0--------1-----|
------------------|-----3--------3--------3--|
------------------|--------2--------2--------|
------------------|--------------------------|
------------------|--------------------------|
------------------|--------------------------|


|------3--------1--------0--|--1--------0--------1------||
|---------3--------3--------|-----3--------3--------3---||
|*--2--------2--------2-----|--------2--------2--------*||
|*--------------------------|--------------------------*||
|---------------------------|---------------------------||
|---------------------------|---------------------------||





Comments


Popular Y And T tabs & chords
Black Tiger Tabs
Forever Tabs
Forever Intro Tabs
From The Moon Tabs
Hang Em High Tabs
Hang Em High 1 Tabs
Midnight In Tokyo Tabs
Open Fire Tabs
Rescue Me Tabs
Rockhedz Tabs


Song lyrics



↑ Back to top | Tablatures and chords are parodies/interpretations of the original songs. You may use it for private study, scholarship, research or language learning purposes only
© 2014 AZChords.com Contact us | Privacy policy | DMCA | Add/correct tabs | Request tabs | Top 50 tabs