» » »

Xzibit, X Tabs (ver.2)

Artists:  A B C D E F G H I J K L M N O P Q R S T U V W X Y Z # 

X Tabs (ver.2)

Xzibit Tabs
 Rating:
4/5 (4 votes)
X lessons Tabs too difficult? Try these video lessons and learn fast
                Tuning:DADGBE (low to high) 

Mainpart (Piano):
---------------------------------
---------------------------------
-2---2---2---2---2---2---2---2---
-2---2---2---2-2-2---2---2---2-2-
-0---0---0---0-2-0---0---0---0-2-
---------------2---------------2-
 1 + 2 + 3 + 4 + 1 + 2 + 3 + 4 +

---------------------------------
---------------------------------
-2---2---2---2-------------------
-2---2---2---2-2-----------------
-0---0---0---0-2-5---3-2-3---3-2-
---------------2-----------------
 1 + 2 + 3 + 4 + 1 + 2 + 3 + 4 +

The cool calisynth in the background
-----------------------------------|
-----------------------------------|
--------------9-10-9---------------|
5/7---------------------------10-9-|
-----------------------------------|
-----------------------------------|
  1 + 2 + 3 + 4 +  1 + 2 + 3 + 4 +

                     |-only-at-chorus-|
--------------------------------------|
--------------------------------------|
--------------9-10-9---7---7---7-10---|
--7----------------------10-----------|
--------------------------------------|
--------------------------------------|
  1 + 2 + 3 + 4 +  1 + 2 + 3 + 4 +

One my friends said that he heard a rock
version of X. Maybe you can use it for
            
Submit corrections

comments powered by Disqus
↑ Back to top | Xzibit Tabs for X. Lyrics for acoustic guitar and electric guitar. Tablatures and chords are parodies/interpretations of the original songs. You may use it for private study, scholarship, research or language learning purposes only