» » »

Xutos And Pontapes, Vo Das Guias Bass tabs (ver.1)

Artists:  A B C D E F G H I J K L M N O P Q R S T U V W X Y Z # 

Vo Das Guias Bass tabs (ver.1)

Xutos And Pontapes Tabs
 Rating:
4/5 (4 votes)
Vo Das Guias lessons Tabs too difficult? Try these video lessons and learn fast
                MUSIC:VOÔ DAS ÁGUIAS (Circo de Feras,1987 Polygram Track 05 04:13)
BASS PLAYER:TIM

Riff  1
E----------------------------|
A----------------2-2-2-2-2-2-|
D-2-2-2-2-2-2----------------|
G----------------------------|

Riff  2
E-3-3---------------3-3-3-3-|
A-----1-1-3-3-1-1-----------|
D---------------------------|
G---------------------------|

Riff  3
E-3-3-------------3-3-3-3---------|
A-----1-1-3-3-1-1---------5-5-5-5-|
D---------------------------------|
G---------------------------------|

Riff 4
E-0-0-0-0---0-0-0-0---0-0-0-0-|
A-----------------------------|
D-----------------------------|
G-----------------------------|

Riff 1  26x (00:18)
Riff 2   3x (01:27)
Riff 3   1x (01:37)
Riff 1  12x (01:40)
Riff 2   3x (02:15)
Riff 3   1x (02:24)
Riff 1   8x (02:26)
Riff 1  12x (03:20)
Riff 4   1x (03:58)
Riff 3   1x (02:03)
            
Submit corrections

comments powered by Disqus
↑ Back to top | Xutos And Pontapes Bass for Vo Das Guias. Lyrics for acoustic guitar and electric guitar. Tablatures and chords are parodies/interpretations of the original songs. You may use it for private study, scholarship, research or language learning purposes only