» » »

Quem E Quem Tabs (ver.1)

Artists:  A B C D E F G H I J K L M N O P Q R S T U V W X Y Z # 

Quem E Quem Tabs (ver.1)

Xutos And Pontapes
Rating:
4/5 (3 votes)

Hard to play? Try these video lessons and learn fast.
                Xutos & Pontapés
Quem é Quem

As tabs foram feitas por mim. Sei que não estão 100% correctas mas espero que ajude =P. Fikem bem 


e:-------------------------------------------------|   (x3)
B:-------------------------------------------------|
G:-------------------------------------------------|
D:--10-10-10--8-8-8-8-8-8-8-8--3-3-3-3-------------|
A:--10-10-10--8-8-8-8-8-8-8-8--3-3-3-3-------------|
E:--8--8--8---6-6-6-6-6-6-6-6--1-1-1-1-------------|


Pé ante pé na noite fechada (…) Matar a fome é o seu papel

e:-------------------------------------------------|   (x5)
B:-------------------------------------------------|
G:--------3----------------------------------------|
D:--5~----3—3--5~----------------------------------|
A:--5~----1—3--5~----------------------------------|
E:--3~------1--3~----------------------------------|


Um comboio de jipes avança pelo trigo… Na terra Africana

e:-------------------------------------------------|   (x3)
B:-------------------------------------------------|
G:--8---5------------------------------------------|
D:--8---5--5---------------------------------------|
A:--6---3--5---------------------------------------|
E:---------3---------------------------------------|


Num fechar de olhos, cercam a aldeia (…) Não há quem lhes escape,
e:-------------------------------------------------|   (x5)
B:-------------------------------------------------|
G:--------3----------------------------------------|
D:--5~----3—3--5~----------------------------------|
A:--5~----1—3--5~----------------------------------|
E:--3~------1--3~----------------------------------|


Não há quem lhes resista(…)Procuram prazer, num jogo mortal.

e:-------------------------------------------------|   (x3)
B:-------------------------------------------------|
G:--8---5------------------------------------------|
D:--8---5--5---------------------------------------|
A:--6---3--5---------------------------------------|
E:---------3---------------------------------------|

Ficamos sem saber(…) Quem é o animal

e:-------------------------------------------------|                
B:-------------------------------------------------|
G:-------------------------------------------------|
D:--5--8—-10s--------------------------------------|
A:--5--8—-10s--------------------------------------|
E:--3--6—-8s---------------------------------------|

Quem é quem (…) quem é quem (…)Por aqui passaram os filhos do ditador.

e:-------------------------------------------------|   (x4)
B:-------------------------------------------------|
G:-------------------------------------------------|
D:--10-10-10--8-8-8-8-8-8-8-8--3-3-3-3-------------|
A:--10-10-10--8-8-8-8-8-8-8-8--3-3-3-3-------------|
E:--8--8--8---6-6-6-6-6-6-6-6--1-1-1-1-------------|


e:-------------------------------------------------|   
B:-------------------------------------------------|
G:-------------------------------------------------|
D:---10-9-8-7--10-9-8-7--10-9-8-7------------------|
A:-------------------------------------------------|
E:-------------------------------------------------|


e:-------------------------------------------------|   
B:-------------------------------------------------|
G:-------------------------------------------------|
D:------------5------------------------------------|
A:---6-5-4-3--5------------------------------------|
E:------------3------------------------------------|


As balas foram as suas primeiras letras

e:-------------------------------------------------|  
B:---8-8-8-8-8-8-8-8-8-8---10b---------------------|
G:-------------------------------------------------|
D:-------------------------------------------------|
A:-------------------------------------------------|
E:-------------------------------------------------|

e:-------------------------------------------------|  
B:---8-8-8-8-8-8-8-8-8-8---------------------------|
G:-------------------------7-6-5-3^----------------|
D:-------------------------------------------------|
A:-------------------------------------------------|
E:-------------------------------------------------|

e:-------------------------------------------------|  
B:---8-8-8-8-8-8-8-8-8-8--11-10-9-8^---------------|
G:-------------------------------------------------|
D:-------------------------------------------------|
A:-------------------------------------------------|
E:-------------------------------------------------|

e:-------------------------------------------------|  
B:---8-8-8-8-8-8-8-8-8-8---------------------------|
G:-------------------------10-8-7-10-8-7-7--10s----|
D:-------------------------------------------------|
A:-------------------------------------------------|
E:-------------------------------------------------|



Quem é quem (…) quem é quem


e:-------------------------------------------------|                 
B:-------------------------------------------------|
G:-------------------------------------------------|
D:--10-10-10--8-8-8-8-8-8-8-8--3-3-3-3-------------|   
A:--10-10-10--8-8-8-8-8-8-8-8--3-3-3-3-------------|    
E:--8--8--8---6-6-6-6-6-6-6-6--1-1-1-1-------------|


        
^-tremolo
s- Slide
b-bend
~-deixa tocar

Tabs feitas por:
J0rz3H!ms3lf
            
Hard to play? Try these video lessons and learn fast. | Correct




comments powered by Disqus
↑ Back to top | Tablatures and chords are parodies/interpretations of the original songs. You may use it for private study, scholarship, research or language learning purposes only