>
 >
Mundo Ao Contrario

Mundo Ao Contrario Guitar Tabs

Xutos And Pontapes - Mundo Ao Contrario chords, tabs, tablatures, lyrics

Guitar lessons | Add/correct | Request | Top 50 tabs Artists:  A B C D E F G H I J K L M N O P Q R S T U V W X Y Z 0-9

Mundo Ao Contrario Guitar Tabs – Xutos And Pontapes

CD, Sheet music, Poster

Do you like Mundo Ao Contrario? Share with your friends now
Tabs
---------------------------------------------------------
        Xutos e Pontapés – Mundo ao contrario
---------------------------------------------------------

Intro [2x]:

 Am                     D                     C
e|-------------------------------------------------------|
B|-------------------------------------------------------|
G|--------5---7---7/9p7---5-------5---7---7^-(7)---5-----|
D|----7-----------------------7--------------------------|
A|-------------------------------------------------------|
E|-------------------------------------------------------|
                      F
----------------------------------------------5---|
----------------------------------------3/5---5---|
------5---7---7/9---7---5-------------------------|
--5--------------------------7\5/7----------------|
--------------------------------------------------|
--------------------------------------------------|

Am         D
     onde vais?
C                        F
     perguntas tu ainda meio a dormir
Am            D
     não sei bem
C                          F
     respondo eu sem saber o que vestir

Am           D
     porque sais?
C                          F
     ainda é cedo e tu não sabes mentir
Am           D
     nem eu sei
C                            F
     só sei que fica tarde e tenho de ir


 --- Play the intro here ---


Am          D
     bem depois
C                          F
     de estar na rua instalou-se uma dor
Am            D
     por nós dois
C                         F
     talvez sair tivesse sido melhor

Am             D
     se assim foi
C                          F
     porque me sinto eu a morrer de amor?

C             F              C
     tenho a noite a atravessar
                Dm
     dói-me não ir
                           Am
     mas não me deixas voltar

C                F
     se gosto de ti
                   Am
     se gostas de mim
                              D
     se isto não chega tens o mundo ao contrario

C                 F
     se gosto de ti
                   Am
     se gostas de mim
                               D
     se isto não chega tens o mundo ao contrario
                     F
     o mundo ao contrario
                     Am
     o mundo ao contrario

Solo:

e|--3/5p3---5---3/5p3---5---3/5p3---5---3---3----------|
B|----------------------------------------------5---4--|
G|-----------------------------------------------------|
D|-----------------------------------------------------|
A|-----------------------------------------------------|
E|-----------------------------------------------------|


---------------------------------------5p3---------5---|
--5---3/5---3-------5-------------------------8^^------|
----------------5-------5---2---0/2--------------------|
-------------------------------------------------------|
-------------------------------------------------------|
-------------------------------------------------------|


-------5---7---7^---(7)---5---7^---(7)---5---10---10---|
--8^^--------------------------------------------------|
-------------------------------------------------------|
-------------------------------------------------------|
-------------------------------------------------------|
-------------------------------------------------------|


--8/10----------------------5p3----------------------|
---------10---8\5---5---5---------5---3--------------|
------------------------------------------5p2--------|
-----------------------------------------------------|
-----------------------------------------------------|
------------------------------------------------3/5--|


-------------------------------------------------------|
------------------5------------------5----7p5----------|
--2---5---7---7^------2---5---7---7^------------5---4--|
-------------------------------------------------------|
-------------------------------------------------------|
-------------------------------------------------------|


------------------------------8--------8---------------|
-------------------------8^^------8^^------8p5------7--|
--2/4---5p4---2---5---7--------------------------7-----|
-------------------------------------------------------|
-------------------------------------------------------|
-------------------------------------------------------|


-------------------5---7---5---------12-------12--------|
--5\3-------5---8---------------12^------12^------(12)--|
--------------------------------------------------------|
--------7-----------------------------------------------|
--------------------------------------------------------|
--------------------------------------------------------|


------------------------------17---15---12\10-----------|
-10---13---13^^---13^^---13--------------------10--8/10-|
--------------------------------------------------------|
--------------------------------------------------------|
--------------------------------------------------------|
--------------------------------------------------------|

C             F             C
     tenho a noite a atravessar
                Dm
     dói-me não ir
                            Am
     mas não me deixas voltar

C                 F
     se gosto de ti
                   Am
     se gostas de mim
                               D
     se isto não chega tens o mundo ao contrario

C                 F
     se gosto de ti
                  Am
     se gostas de mim
                               D
     se isto não chega tens o mundo ao contrario

C                 F
     se gosto de ti
                      Am
     (o mundo ao contrario)
D                     C
     (o mundo ao contrario)
                   F
     se gostas de mim
                      Am
     (o mundo ao contrario)
D
     (o mundo ao contrario)
C                F
     se gosto de ti
                   Am
     se gostas de mim
                               D
     se isto não chega tens o mundo ao contrario
                     F
     o mundo ao contrario
                     Am
     o mundo ao contrario


Best Portuguese Band!!





Comments


Popular Xutos And Pontapes tabs & chords
Andarilhos Bass Tabs
Cerco Bass Tabs
Sexo Bass Tabs
Contentores 1 Chords
Querida Pequenina Chords
Superjacto Chords
Pra Ti Maria Tabs
Negras Como A Noite Ukulele
O Homem Do Leme Ukulele
O Santo E A Senha Ukulele


Song lyrics



↑ Back to top | Tablatures and chords are parodies/interpretations of the original songs. You may use it for private study, scholarship, research or language learning purposes only
© 2014 AZChords.com Contact us | Privacy policy | DMCA | Add/correct tabs | Request tabs | Top 50 tabs