» » »

Enquanto A Noite Cai Bass tabs (ver.1)

Artists:  A B C D E F G H I J K L M N O P Q R S T U V W X Y Z # 

Enquanto A Noite Cai Bass tabs (ver.1)

Xutos And Pontapes
Rating:
0/5 (0 votes)

Hard to play? Try these video lessons and learn fast.
                MUSIC:ENQUANTO A NOITE CAI (88,1988 POLYGRAM TRACK 04 03:10)
BASS PLAYER:TIM

RIFF 1
E-------------------------|
A---2-2-2-2-2-------------|
D-4-----------4-2-2-2-2-2-|
G-------------------------|

Riff  2
E--7-7-7-7-7-7----------------------------------------|
A-----------------7-7-7-7-7-7-5-5-5-5-5-5-7-7-7-7-7-7-|
D-----------------------------------------------------|
G-----------------------------------------------------|

Riff  3
E---------------------7-7-7-7-7----------|
A-5-5-5-5-5-7-7-7-7-7----------7-7-7-7-7-|
D----------------------------------------|
G----------------------------------------|

Riff  4
E------------|
A-2--2--2--2-|
D------------|
G------------|

RIFF 1 15X  (00:13)
RIFF 2 4X   (01:00)
RIFF 1 3X   (01:24)
RIFF 2 4X   (01:34)
RIFF 2 2X   (01:58)
RIFF 1 4X   (02:10)
RIFF 2 4X   (02:19)
RIFF 3 2X   (02:43)
RIFF 1 3X   (02:56)
RIFF 4 1X   (03:04)
RIFF 1 6X   (03:23)
RIFF 2 2X   (03:35)
RIFF 3 4X   (03:48)
RIFF 1 3X   (04:10)
RIFF 4 1X   (04:20)
            
Hard to play? Try these video lessons and learn fast. | Correct




comments powered by Disqus
↑ Back to top | Tablatures and chords are parodies/interpretations of the original songs. You may use it for private study, scholarship, research or language learning purposes only