» » »

Douras Bass tabs (ver.1)

Artists:  A B C D E F G H I J K L M N O P Q R S T U V W X Y Z # 

Douras Bass tabs (ver.1)

Xutos And Pontapes
Rating:
0/5 (0 votes)

Hard to play? Try these video lessons and learn fast.
                MUSIC:DOÇURAS (88,1988 POLYGRAM TRACK 04 03:10)
BASS PLAYER:TIM

RIFF 1
E-7-7-7-7-7-5-5-5-5-5-7-7-7-7-7-----------|
A-------------------------------7-7-7-7-7-|
D-----------------------------------------|
G-----------------------------------------|

Riff  1
E-5-5-5-5-5-5-5--------------------|
A------------------7-7-7-7-7-7-7-7-|
D----------------------------------|
G----------------------------------|

Riff  2
E-7-7-7-7-7-7-5-5-5-5-5-5-3-3-3-3-3-3-0-0-0-0-0-0-|
A-------------------------------------------------|
D-------------------------------------------------|
G-------------------------------------------------|

Riff  3
E-7-7-7-7-7-7-5-5-5-5-5-5-3-3-3-3-3-3-0-0-0-0-0-0-|
A-------------------------------------------------|
D-------------------------------------------------|
G-------------------------------------------------|

RIFF 1 5X   (00:00)
RIFF 2 1X   (00:39)
RIFF 1 2X   (00:46)
RIFF 2 1X   (00:59)
RIFF 1 2X   (01:05)
RIFF 2 1X   (01:18)
RIFF 1 2X   (01:24)
RIFF 2 1X   (01:37)
RIFF 1 4X   (01:44)
RIFF 2 1X   (02:08)
RIFF 1 2X   (02:15)
RIFF 2 1X   (02:28)
RIFF 1 2X   (02:34)
RIFF 2 1X   (02:34)
RIFF 3 2X   (02:48)
RIFF 3 2X   (02:54)
            
Hard to play? Try these video lessons and learn fast. | Correct




comments powered by Disqus
↑ Back to top | Tablatures and chords are parodies/interpretations of the original songs. You may use it for private study, scholarship, research or language learning purposes only