» » »

Andarilhos Bass tabs (ver.1)

Artists:  A B C D E F G H I J K L M N O P Q R S T U V W X Y Z # 

Andarilhos Bass tabs (ver.1)

Xutos And Pontapes
Rating:
0/5 (0 votes)

Hard to play? Try these video lessons and learn fast.
                MUSIC:ANDARILHOS (88,1988 POLYGRAM TRACK 04 03:10)
BASS PLAYER:TIM

Riff  1
E----------------------|
A-5-5-5-5-5-2-2-2-2-2--|
D----------------------|
G----------------------|

Riff  2
E-------------------------------------|
A-5-5-5-5-5-2-2-2-2-2-----------------|
D---------------------7-7-7-7-9-9-9-9-|
G-------------------------------------|

Riff  3
E-----------------------|
A-5-5-5-5-5-2-2-2-2-2---|
D---------------------9-|
G-----------------------|

Riff  4
E-------------|
A-------------|
D-2-2-2-2-4-4-|
G-------------|

Riff  5
E---------------------|
A---------------------|
D-5-5-5-5-5-7-7-7-7-7-|
G---------------------|

Riff  6
E-------------------------------|
A-5-5-5-5-5-2-2-2-2-2-----------|
D---------------------7-7-7-7-9-|
G-------------------------------|

Riff  7
E---------------------------|
A-5-5-5-5-5-7-7-7-7-9-9-9-9-|
D---------------------------|
G---------------------------|

Riff  8
E-2----2----2-|
A-------------|
D-------------|
G-------------|

RIFF 1 8X (00:10)
RIFF 2 1X (00:32)
RIFF 1 2X (00:40)
RIFF 3 1X (00:48)
RIFF 1 2X (00:56)
RIFF 3 1X (01:02)
RIFF 1 6X (01:10)
RIFF 3 1X (01:33)
RIFF 1 2X (01:40)
RIFF 3 1X (01:47)
RIFF 1 2X (01:56)
RIFF 3 1X (02:02)
RIFF 1 6X (02:10)
RIFF 7 1X (02:33)
RIFF 1 2X (02:40)
RIFF 3 2X (02:48)
RIFF 8 1X (02:56)
            
Hard to play? Try these video lessons and learn fast. | Correct




comments powered by Disqus
↑ Back to top | Tablatures and chords are parodies/interpretations of the original songs. You may use it for private study, scholarship, research or language learning purposes only