» » »

Xavier Rudd, River Groove Tabs (ver.1)

Artists:  A B C D E F G H I J K L M N O P Q R S T U V W X Y Z # 

River Groove Tabs (ver.1)

Xavier Rudd Tabs
Rating:
4/5 (1 vote)
River Groove lessons Tabs too difficult? Try these video lessons and learn fast
                Tuning:Dropped D (DADGBE)

This is My First tab So i Hope Its All right

E----------------------------------------------------|
B----------------------------------------------------|
G--------------5-5s7------------------5-5s7----------|
D--------3-0--------7----------------------7---------|
A----3h5---------------0-2h3-2h3-0-------------------|
D-0----------0---------0-2h3-2h3-0--0----------------|

E---------------------------------------------------|
B---------------------------------------------------|
G-----------5-5s7-----------------5-5s7-------------|
D-------3-5-------7---------------------7-----------|
A---3h5-------------0-2h3-2h3-0---------------------|
D-0-----------------0-2h3-2h3-0-0-------------------|

E---------------------------------------------------|
B---------------------------------------------------|
G-------------5-5s7------------------5-5s7----------|
D-------3-0--------7----------------------7---------|
A---3h5---------------0-2h3-2h3-0-------------------|
D-0---------0---------0-2h3-2h3-0--0----------------|

E-------------------------------------------------|
B-----------------------------------------5-------|
G-----------5-5s7-----------------5-5s7-----7-----|
D-------3-5-------7---------------------7---------|
A---3h5-------------0-2h3-2h3-0-------------------|
D-0-----------------0-2h3-2h3-0-0-----------------|


E---------------------------------10-------------|
B-----------------------------------10-8---------|
G----------------------------------------7-------|
D------------------------------------------------|
A-0--3s5-5---2s3-3---2s3-1s2-0-------------------|
D-0--3s5-5-0-2s3-3-0-2s3-1s2-0-0-0---------------|

E------------------------------------------|
B------------------------------------------|
G----------------------------------2-0-----|
D------------------------------------------|
A---5s7-7---3s5-5---2s3-1s2-0--------------|
D-0-5s7-7-0-3s5-5-0-2s3-1s2-0-0-0----------|

E----------------------------------------------------|
B----------------------------------------------------|
G--------------5-5s7------------------5-5s7----------|
D--------3-0--------7----------------------7---------|
A----3h5---------------0-2h3-2h3-0-------------------|
D-0----------0---------0-2h3-2h3-0--0----------------|

E---------------------------------------------------|
B---------------------------------------------------|
G-----------5-5s7-----------------5-5s7-------------|
D-------3-5-------7---------------------7-----------|
A---3h5-------------0-2h3-2h3-0---------------------|
D-0-----------------0-2h3-2h3-0-0-------------------|

E---------------------------------------------------|
B---------------------------------------------------|
G-------------5-5s7------------------5-5s7----------|
D-------3-0--------7----------------------7---------|
A---3h5---------------0-2h3-2h3-0-------------------|
D-0---------0---------0-2h3-2h3-0--0----------------|

E-------------------------------------------------|
B-----------------------------------------5-------|
G-----------5-5s7-----------------5-5s7-----7-----|
D-------3-5-------7---------------------7---------|
A---3h5-------------0-2h3-2h3-0-------------------|
D-0-----------------0-2h3-2h3-0-0-----------------|


E---------------------------------10-------------|
B-----------------------------------10-8---------|
G----------------------------------------7-------|
D------------------------------------------------|
A-0--3s5-5---2s3-3---2s3-1s2-0-------------------|
D-0--3s5-5-0-2s3-3-0-2s3-1s2-0-0-0---------------|

E------------------------------------------|
B-------------------------------------5----|
G----------------------------------7----7--|
D------------------------------------7-----|
A---5s7-7---3s5-5---2s3-1s2-0--------------|
D-0-5s7-7-0-3s5-5-0-2s3-1s2-0-0-0----------|

He Plays This When the Didgeridoo
E-----------------------------------------|
B-----------------------------------------|
G----------------2-0----------------------|
D-------3-0-------------------------------|
A---3h5------0-0--------------------------|
D-0----------0-0--------------------------|
Then He repeats Other Sections
Hope This Helps People Out Enjoy
Please rate
            

comments powered by Disqus
↑ Back to top | Xavier Rudd Tabs for River Groove. Lyrics for acoustic guitar and electric guitar. Tablatures and chords are parodies/interpretations of the original songs. You may use it for private study, scholarship, research or language learning purposes only