» » »

Ich Kenne Nichts Tabs (ver.3)

Artists:  A B C D E F G H I J K L M N O P Q R S T U V W X Y Z # 

Ich Kenne Nichts Tabs (ver.3)

Xavier Naidoo
Rating:
0/5 (0 votes)

Hard to play? Try these video lessons and learn fast.
                Original Intro and Tabs

e----------1---------------1---3---0------|
------3--------3-------1-----------1------|
---3---------------2---------------0------|
-----------------------------------2------|
-----------------------------------3------|
E--3-------------------------------3------|

Part 1/ Tabs

e---3-----1-----0-------------------------|
----3-----1-----1-------------------------|
----3-----2-----0-------------------------|
----5-----3-----2-------------------------|
----5-----3-----3-------------------------|
E---3-----1-----3-------------------------|

Part 2/ Tabs

e--6------1-----0-------------------------|
---6------1-----1-------------------------|
---7------2-----0-------------------------|
---8------3-----2-------------------------|
---8------3-----3-------------------------|
E--6------1-----3-------------------------|


I Hope you like it!  (:
            
Hard to play? Try these video lessons and learn fast. | Correct




comments powered by Disqus
↑ Back to top | Tablatures and chords are parodies/interpretations of the original songs. You may use it for private study, scholarship, research or language learning purposes only