» » »

Wonder Stevie, Sir Duke Chords (ver.1)

Artists:  A B C D E F G H I J K L M N O P Q R S T U V W X Y Z # 

Sir Duke Chords (ver.1)

Wonder Stevie Tabs
Rating:
0/5 (0 votes)
Sir Duke lessons Tabs too difficult? Try these video lessons and learn fast
                "Sir Duke"
                            (Stevie Wonder)

Intro:

	horns (w/bass drum and high hat) arr. for guitar [2X]:

	(B)                              (G#m)
	 v       v       v       v         v       v       v       v
	-------------------------7-------|-----------------------4---------
	-----------------7---------------|-----------------4-3-4-----------
	---------8-----------------------|---------4-3-4-------------------
	-9-------------------------------|-6---6---------------------------
	---------------------------------|---------------------------------
	---------------------------------|---------------------------------

	(G)                               (F#)
	 v       v       v       v         v       v       v       v
	-------------------------3-------|-2-------------------------------
	-----------------3-2-3-----------|---------------------------------
	---------4---4-------------------|---------------------------------
	-5---5---------------------------|---------------------------------
	---------------------------------|---------------------------------
	---------------------------------|---------------------------------

	bass [2nd repeat]:
	(G)                               (F#)
	 v       v       v       v         v       v       v       v
	---------------------------------|---11--1011----------------------
	---------------------------------|-------------------4---2-1-------
	---------------------------------|-----------------------------2---
	---------------------------------|---------------------------------

Verse 1:

	B                   G#m
	   Music is a world within itself
	        G9                   F#9
	With a language we all understand
	B                    G#m
	  With an equal opportunity
	            G9                         F#9  F9
	For all to sing, dance and clap their hands

	            E9       D#9  D9      C#9
	But just because a record has a groove
	       D9    D#9       E9
	Don't make it in the groove
	             E9         D#9    D9    C#9
	But you can tell right away at letter A
	         D9 D#9  E9   F9 F#9
	When the people start to move

Chorus 1:

	B                      Fm7
	  They can feel it all over
	 E               /D# C#m   F#
	They can feel it all over, people
	B                      Fm7
	  They can feel it all over
	 E               /D# C#m   F#
	They can feel it all over, people

Instrumental break:

	bass [doubled w/horns]:

	 v       v       v       v         v       v       v       v
	---------------------------------|---------------16--181920--------
	---------------------6-4---------|-9---------1618------------------
	-2---------2-6-4---4-------9-9-11|-----161718----------------------
	---------------------------------|---------------------------------

	 v       v       v       v         v       v       v       v
	-13----------11--------------8---|-6-4-----6-4---4-----------------
	---------13----------11----------|-----6-4-----6-------------------
	---------------------------------|---------------------------------
	---------------------------------|---------------------------------

	 v       v       v       v         v       v       v       v
	-8---6-4-6-4---4-----------------|---------------------------------
	-------------6---6-4-6-----4---4-|---------------------------------
	-----------------------------6---|-6-4-6-4-2-4-2-------------------
	---------------------------------|---------------4-----2-----------

	 v       v       v       v         v       v       v       v
	---------------4-----4-----------|---------------------------------
	-----------4-6-----6-------6---4-|-6-----4-----4-------------------
	-----2-4-6-----------------------|-----------6---------------------
	-2-4-----------------------------|---------------------2-2---------

Verse 2:

	Music knows it is and always will
	Be one of the things that life just won't quit
	But here are some of music's pioneers
	That time will not allow us to forget, now

	For there's Basie, Miller, Satchmo
	And the king of all, Sir Duke
	And with a voice like Ella's ringing out
	There's no way the band can lose

[repeat chorus 1, 2X]

[repeat instrumental break]

[repeat chorus 1]

Chorus 2:

	You can feel it all over
	You can feel it all over, people
	You can feel it all over
	I can feel it all over, all over now people

Chorus 3:

	Can't you feel it all over
	Come on let's feel it all over, people
	You can feel it all over
	Everybody, all over, people

[repeat instrumental break; end cold on final F#]


-- another ace 70's tab from Andrew Rogers
            

comments powered by Disqus
↑ Back to top | Wonder Stevie Chords for Sir Duke. Lyrics for acoustic guitar and electric guitar. Tablatures and chords are parodies/interpretations of the original songs. You may use it for private study, scholarship, research or language learning purposes only