» » »

Master Blaster Bass tabs (ver.1)

Artists:  A B C D E F G H I J K L M N O P Q R S T U V W X Y Z # 

Master Blaster Bass tabs (ver.1)

Wonder Stevie
Rating:
0/5 (0 votes)

Hard to play? Try these video lessons and learn fast.
                Sorry to the guy who did the last tab, but it was in the wrong key, and only 
featured the very first intro riff, without the verse, chorus and solos. 
This is the complete version and it took me a while so be happy! I recommend 
slapping and picking the intro riff, gives it more punch. Also, the "solo" 
bits sound hard, but give them a little practice and they're easy.

Intro

G:------------------------------------------
D:-----10-10-------10-10-----8-8-----6-6----
A:------------------------------------------
E:-8-8---------8-8-------6-6-----4-4--------

Verse

G:------------------------------------------------------------------
D:-----6-6-----5-5-----3-3-------3-3-----3-3-----10-10----------8-8-
A:------------------------------------------------------------------
E:-4-4-----3-3-----1-1-------1-1-----1-1-----8-8--------8-8-6-6-----

G:------------------------------------------------------
D:-10-10------------------10----8-8---8-6-6-------------
A:-------10-10---------------10-----8-------6-6---6-----
E:-------------11-11-8-8------------------------8---8-4-

G:---------------------------------------------------------------
D:-6---5-5---5-3-3--------------3-1-3-1--------5-----------3-----
A:---6-----5-------3-3---3--------------3--3-3---3-----1-1---1---
E:---------------------5---5-1---------------------3-----------1-

Chorus

G:-----------------------------------------------------
D:---------------5-----------3---1-1-3-5-5-3-3-1-1-0-0-
A:-3-3---3-----------------3---3-----------------------
E:-----3-----3-3---3---1-1-----------------------------

G:-----------------------------------------------------
D:---------------5-----------3---1-1-3-5-5-3-3-1-1-0-0-
A:-3-3---3-----------------3---3-----------------------
E:-----3-----3-3---3---1-1-----------------------------

Bit after Chorus

G:-------------------------------
D:-------------------------------
A:--------6----6-8-10-8-6--------
E:-8--6-8----8------------8-6-8--

G:----------------------------------------------
D:----------------------------------------------
A:------------6---6-8-10-8-6---6-8-10-8-6-------
E:-3-6-8--6-8---8------------8------------8-6-8-

Solo Thing

G:---------------------------------
D:---------------------------------
A:--------6----6-8-10-8-6----------
E:-8--6-8----8------------8-6-8----

G:----------------------------------------------------
D:------------------------------------------8----8-10-
A:------------6----6-8-10-8-6---6-10---8-10---10------
E:-3-6-8--6-8----8------------8-----------------------

G:------8--------------8-
D:-8-10---10-8----8-10---
A:-------------10--------
E:-----------------------

G:------8----------------------------------------------------------
D:-8-10---10-8-10-8----8--------------10-8----8--------------------
A:------------------10---10-8-10-8---------10---10-8-10-8----6-----
E:---------------------------------10---------------------10---6-6-
            
Hard to play? Try these video lessons and learn fast. | Correct




comments powered by Disqus
↑ Back to top | Tablatures and chords are parodies/interpretations of the original songs. You may use it for private study, scholarship, research or language learning purposes only