» » »

Woe Is Me, Mannequin Religion Tabs (ver.1)

Artists:  A B C D E F G H I J K L M N O P Q R S T U V W X Y Z # 

Mannequin Religion Tabs (ver.1)

Woe Is Me Tabs
 Rating:
4/5 (13 votes)
Mannequin Religion lessons Tabs too difficult? Try these video lessons and learn fast
                -------------------------------------------------------------------------------
                             MANNEQUIN RELIGION – Woe, Is Me
-------------------------------------------------------------------------------


|-------------------------|
|-------------------------|
|-------------------------|
|-------------------------|
|-5---540-5---540----5-0--| 2x
|--7-5-----7-5----5-7-----|

|------------------3+--------------------------------|
|------------------3+--------------------------------|
|------------------3+--------------------------------|
|------------------3+---------------------0~-------0-|
|-0-0-0-0000-0-0-0-----0-0-0-0000-0-0-0---0~-------0-|
|-1-1-1-1111-1-1-1-----0-0-0-0000-0-0-0---0~-------0-|
  . . . .... . . .     . . . .... . . .
|-----------------------------------|
|-----------------------------------|
|-----------------------------------|
|-0---------------8-------10--------|
|-0---------------8-------10--------|2x
|-0---------------8-------10--------|

|------------------------------------------------------------|
|------------------------------------------------------------|
|------------------------------------------------------------|
|------------------------------------------------------------|
|-00000000000000003333333333333333---------8888888888888888--|
|-000000000000000033333333333333335-5-5-5-58888888888888888--|
   ............... ...............         ................
|------------------------------------------------------------|
|------------------------------------------------------------|
|------------------------------------------------------------|
|------------------------------------------------------------|
|-00000000000000003333333333333333---------------------------|
|-000000000000000033333333333333335-5-5-5-50-00-00-0-00-00---|
   ............... ...............
|---------------------------------------------------------------------------|
|---------------------------------------------------------------------------|
|---------------------------------------------------------------------------|
|---------------------------------------------------------------------------|
|-----------------0-00-0-00------------------0-00--0000-000-000-004---------|
|-0-00-00-0-00-00-0-00-0-00--0-00-00-0-00-00-0-00--0000-000-000-00-1-0------|
                  . .. . ..                  . ..  .... ... ... ..  
|-------------------------------------------|
|-------------------------------------------|
|-------------------------------------------|
|-------------------------------------------|
|-0000-000-000-00--0000-0000-0-0000-0000-0--|
|-0000-000-000-00--1111-1111-1-1111-1111-1--|
  .... ... ... ..  .... .... . .... .... .
|-------------------------------------------|
|-------------------------------------------|
|-tp7---------------------------------------|
|-----------tp5-------tp8-------------------|
|-------------------------------tp6---tp5---|
|-------------------------------------------|

|---------------------------------------------------------------------------|
|---------------------------------------------------------------------------|
|---------------------------------------------------------------------------|
|---------------------------------------------------------------------------|
|---------------------------------------------------------------------------|
|-800-00-800-00-00-00-0-00-00-800-00-800-00-00-00-0-00-00-0-00-00-0---------|

|-----------------------------|
|-----------------------------|
|-----------------------------|
|-----------------------------|
|-00-00-0000-0-00-00-000-000--|4x
|-00-00-0000-0-00-00-000-000--|
  .. .. .... . .. .. ... ...
|--------------------------------|---------------------------------|
|--------------------------------|---------------------------------|
|--------------------------------|---------------------------------|
|--------------------------------|---------------------------------|
|---------------------------(2x)-|--------------------000-000-(2x)-|
|-11-11-1111-1-11-11-111-111-----|-00-00-0000-0-00-00-000-000------|


************************************

| ~   vibrato
| +   harmonic
| .   Mute note

************************************

Rate/comment please
            
Submit corrections

comments powered by Disqus
↑ Back to top | Woe Is Me Tabs for Mannequin Religion. Lyrics for acoustic guitar and electric guitar. Tablatures and chords are parodies/interpretations of the original songs. You may use it for private study, scholarship, research or language learning purposes only