» » »

Wizo, Redarmyfraction Tabs (ver.1)

Artists:  A B C D E F G H I J K L M N O P Q R S T U V W X Y Z # 

Redarmyfraction Tabs (ver.1)

Wizo Tabs
 Rating:
4/5 (4 votes)
Redarmyfraction lessons Tabs too difficult? Try these video lessons and learn fast
                WIZO - R.A.F

I figured this one out while in Eb tuning, so tune everything down a half step first!

(Intro riff)
e|-------------12-12-12-------------------13-------------13-13-13-12---------|
B|-------13-15----------15-13----------13----------12-15-------------15------|
G|-12-12----------------------------14-------12-12---------------------------|
D|----------------------------15-15------------------------------------------|
A|---------------------------------------------------------------------------|
E|---------------------------------------------------------------------------|

e|-13-13-12----12-------------12-12-12-------------------13----13-13-12------|
B|----------15----------13-15----------15-13----------13----------------15---|
G|----------------12-12----------------------------14------------------------|
D|-------------------------------------------15-15---------------------------|
A|---------------------------------------------------------------------------|
E|---------------------------------------------------------------------------|

                      (pm)  (pm)  (pm)  (pm)
e|-12-12-12------------------------------------------------------------------|
B|----------15-13\-----------------------------------------------------------|
G|-------------------------------------------12-12-12-12-12-12-12-12-12------|
D|------------------55-55--5-55--5-55--5-5---12-12-12-12-12-12-12-12-12------|
A|------------------55-55--5-55--5-55--5-5---10-10-10-10-10-10-10-10-10------|
E|------------------33-33--3-33--3-33--3-3-----------------------------------|

(Intro riff accompanyment - call me crazy, but I swear I can hear these being played!)
e|---------------------------5----------5-5-5-----5-5------------------------|
B|-----5-6-8-8-8-6-5-------6----------6-------8-6-----8-6-8------5-6-8-8-8---|
G|-5-5-------------------5-----4--4-7------------------------5-5-------------|
D|-------------------7-7-----------------------------------------------------|
A|---------------------------------------------------------------------------|
E|---------------------------------------------------------------------------|

e|-------------5--5-5--------------------------------------------------------|
B|-6-5-------6--------8-6--8-8-8-6-5\----------------------------------------|
G|---------5-----------------------------------------------------------------|
D|-----7-7-------------------------------------------------------------------|
A|---------------------------------------------------------------------------|
E|---------------------------------------------------------------------------|

(Verse - listen to the song for the exact palm mutes, if you're that picky!)
e|---------------------------------------------------------------------------|
B|---------------------------------------------------------------------------|
G|---------------------------------------------------------------------------|
D|-777--777-777---333--333-333----777--777-777---555--555-6------------------|
A|-777--777-777---333--333-333----777--777-777---555--555-6------------------|
E|-555--555-555---111--111-111----555--555-555---333--333-4------------------|

(For this part of the verse, play the full barre chords, and use this 
rhythm. This time, instead  of going back to Amin, go to a Dmaj)
e|-X-X-5--X-X-5-X-5----------------------------------------------------------|
B|-X-X-5--X-X-5-X-5----------------------------------------------------------|
G|-X-X-5--X-X-5-X-5----------------------------------------------------------|
D|-X-X-7--X-X-7-X-7----------------------------------------------------------|
A|-X-X-7--X-X-7-X-7----------------------------------------------------------|
E|-X-X-5--X-X-5-X-5----------------------------------------------------------|

(Pre-chorus chords)
e|-5-55-555--5-55-555--5-55-555--5-55-555----------------------------------3-|
B|-5-55-555--7-77-777--5-55-555--7-77-777----------------------------------3-|
G|-5-55-555--7-77-777--5-55-555--7-77-777-10-1010101010--9-99-999-7-77-777-4-|
D|-7-77-777--7-77-777--7-77-777--7-77-777-10-1010101010--9-99-999-7-77-777-5-|
A|-7-77-777--5-55-555--7-77-777--5-55-555--8--8-8-8-8-8--7-77-777-5-55-555-5-|
E|-5-55-555------------5-55-555--------------------------------------------3-|

(Pre-chorus lead)
e|---------------------------------------------------------------------------|
B|---5------5-------5------5-------------------------------------------------|
G|---5------5-------5------5-------------------------------------------------|
D|-7---7--4---4---7---7--4---4---------2-----5-----7-------9-----------------|
A|---------------------------------------------------------------------------|
E|---------------------------------------------------------------------------|

(Chorus - I'm not putting the exact number of times to play each chord!)
e|---------------------------------------------------------------------------|
B|---------------------------------------------------------------------------|
G|-5-5-5--------------------------------5---5-5-5----------------------------|
D|-5-5-5-5--3-3-3-3--5-5-5-5--5-5--3-3--5---5-5-5-5-3-3-3-3-3-3--------------|
A|-3-3-3-5--3-3-3-3--5-5-5-5--5-5--3-3--3---3-3-3-5-3-3-3-3-3-3--------------|
E|-------3--1-1-1-1--3-3-3-3--3-3--1-1------------3-1-1-1-1-1-1--------------|

e|---------------------------------------------------------------------------|
B|---------------------------------------------------------------------------|
G|-X-X10-X-X10--X-X-9-X-X-9--------------------------------------------------|
D|-X-X10-X-X10--X-X-9-X-X-9---5-5-555-555-555--------------------------------|
A|-X-X-8-X-X-8--X-X-7-X-X-7---5-5-555-555-555--------------------------------|
E|----------------------------3-3-333-333-333--------------------------------|

(This is the riff that plays overtop the chorus chords. Play this all the 
way through!)
e|---------------------------------------------------------------------------|
B|-13----13----13----13------------------------------------------------------|
G|----12----12----12----12---------------------------------------------------|
D|---------------------------------------------------------------------------|
A|---------------------------------------------------------------------------|
E|---------------------------------------------------------------------------|

(Other lead riff - chords for this part are same as the second half of the 
chorus. C G F F C G)
e|-------------12-12-12-------------------13--13-13-12----12-12-12-----------|
B|-------13-15----------15-13----------13--------------15----------15-13\----|
G|-12-12----------------------------14---------------------------------------|
D|----------------------------15-15------------------------------------------|
A|---------------------------------------------------------------------------|
E|---------------------------------------------------------------------------|

(Bridge - Play through 2x)
e|-5--5--5-5--5---1--1--1-1--1---5--5--5-5--5---3--3--3-3---4----------------|
B|-5--5--5-5--5---1--1--1-1--1---7--7--7-7--7---3--3--3-3---4----------------|
G|-5--5--5-5--5---2--2--2-2--2---7--7--7-7--7---4--4--4-4---5----------------|
D|-7--7--7-7--7---3--3--3-3--3---7--7--7-7--7---5--5--5-5---6----------------|
A|-7--7--7-7--7---3--3--3-3--3---5--5--5-5--5---5--5--5-5---6----------------|
E|-5--5--5-5--5---1--1--1-1--1------------------3--3--3-3---4----------------|

(Bridge lead - Play 2x)
e|---------------------------------------------------------------------------|
B|---------------------------------------------------------------------------|
G|-----5-----5-------6-----6-------7-----7-------8-----8---------------------|
D|---5---5---------5---5---------7---7---------7---7-------------------------|
A|-7-------7-----3-------3-----4-------4-----5-------5-----------------------|
E|---------------------------------------------------------------------------|

Final Chorus - same as before, but everything goes up a half step.
If you don't know what that means, just take the other chorus and move 
everything up one fret.

(Final chorus lead - this is for the second part of the chorus. Might be a 
bit off.)
e|---------------------------------------------------------------------------|
B|-14----14----14----14----13----13----14----14-----14----14----14----14-----|
G|----11----11----13----13----13----13----13----13-----11----11----13----13--|
D|---------------------------------------------------------------------------|
A|---------------------------------------------------------------------------|
E|---------------------------------------------------------------------------|

[Play a bunch of G chords, then]

Outro riff
e|---------------------------------------------------------------------------|
B|---------6-6-6-------------------------------------------------------------|
G|-----6-8-------8-6------------------6--------------------------------------|
D|-6-6-----------------4--4---6-6-6---6--------------------------------------|
A|---------------------4--4---6-6-6---4--------------------------------------|
E|---------------------2--2---4-4-4------------------------------------------|
            
Submit corrections

comments powered by Disqus
↑ Back to top | Wizo Tabs for Redarmyfraction. Lyrics for acoustic guitar and electric guitar. Tablatures and chords are parodies/interpretations of the original songs. You may use it for private study, scholarship, research or language learning purposes only