» » »

Wizo, Raum Der Zeit Tabs (ver.1)

Artists:  A B C D E F G H I J K L M N O P Q R S T U V W X Y Z # 

Raum Der Zeit Tabs (ver.1)

Wizo Tabs
 Rating:
4/5 (4 votes)
Raum Der Zeit lessons Tabs too difficult? Try these video lessons and learn fast
                Intro:
e|--------|
B|--------|
G|--7-----|
D|--7---5-|
A|--5---5-|
E|------3-|

Verses:
e|------------------------------------------------------------------|
B|------------------------------------------------------------------|
G|-----------------5--5-5-5-5-5-5------------------7-7-7-7----------|
D|-7--7-7-7-7-7-7--5--5-5-5-5-5-5--3--3-3-3-3-3-3--7-7-7-7--5--5-5--|
A|-7--7-7-7-7-7-7--3--3-3-3-3-3-3--3--3-3-3-3-3-3--5-5-5-5--5--5-5--|
E|-5--5-5-5-5-5-5------------------1--1-1-1-1-1-1-----------3--3-3--|

Chorus:
e|--------------------------------------------
B|--------------------------------------------
G|-----------5-5-5-5--------------------------
D|--3-3-3-3--5-5-5-5--5-5-5-5--7-7-7-7--------
A|--3-3-3-3--3-3-3-3--5-5-5-5--7-7-7-7--------
E|--1-1-1-1-----------3-3-3-3--5-5-5-5--------

e----------------------------------|
B----------------------------------|
G-----------5-5-5-5--7-7-7-7--9----|
D--3-3-3-3--5-5-5-5--7-7-7-7--9----|
A--3-3-3-3--3-3-3-3--5-5-5-5--7----|
E--1-1-1-1-------------------------|


Bridge:
e|--------------------------------------------------------------------|
B|--------------------------------------------------------------------|
G|--------------------------------------------------------------------|
D|------------------7-7--0-0-2-2-3-3-5-5---5-5------------------------|
A|-0-0-2-2-3-3-5-5--7-7--------------------5-5------------------------|
E|------------------5-5--------------------3-3------------------------|

lyrics:

Ich bin schwul, ich bin jüdisch und ein Kommunist dazu
Ich bin schwarz und behindert, doch genauso Mensch wie du
Ich bin hochintelligent und doch so doof wie Sauerkraut
Ich bin schön, ich bin hässlich, ich bin fett und gut gebaut
Es gibt nichts - nichts, was dich besser macht als mich
Denn auch du hast deine Fehler, deine Fehler so wie ich
Und die Fehler sind nix falsches, sie gehören zu dir und mir
Und wenn du's nicht auf die Reihe kriegst, kann niemand was dafür

Du bist einer von Milliarden
Und das musst du akzeptieren
Du bist einer von Milliarden Ärschen auf der Welt

Deine Werte, deine Normen, die Moral und das Gesetz
Sind entbehrlich und ersetzbar - überflüssiges Geschwätz
Heute gültig, morgen nichtig, übermorgen umgekehrt
Was hier richtig oder wichtig, ist woanders ohne Wert
Deine Götter, deine Kirchen, Glauben, Weltreligionen
Heute heilig, morgen Frevel, übermorgen blanker Hohn
Und das Geld und der Ruhm und die Unvergänglichkeit
Sind bei näherer Betrachtung - für'n Arsch

Du bist nicht der Mittelpunkt des Universums
Du bist nur ein Arsch im Raum der Zeit

Du bist nicht der Mittelpunkt des Universums
Du bist nur ein Arsch im Raum der Zeit
            
Submit corrections

comments powered by Disqus
↑ Back to top | Wizo Tabs for Raum Der Zeit. Lyrics for acoustic guitar and electric guitar. Tablatures and chords are parodies/interpretations of the original songs. You may use it for private study, scholarship, research or language learning purposes only