» » »

Wizo, Quadrat Im Kreis Tabs (ver.1)

Artists:  A B C D E F G H I J K L M N O P Q R S T U V W X Y Z # 

Quadrat Im Kreis Tabs (ver.1)

Wizo Tabs
 Rating:
4/5 (4 votes)
Quadrat Im Kreis lessons Tabs too difficult? Try these video lessons and learn fast
                WIZO - Quadrat Im Kreis



X= mute strings with left hand

Verse:
e|--------------------------------------------------------------------| 
B|--------------------------------------------------------------------| 
G|--------------------------------------------------------------------| 
D|---3---7---7---5---3---2---2---5---5--------------------------------| 
A|---5---5---3---3---1---1---0---0---4--------------------------------| 
E|--------------------------------------------------------------------| 
     4x  4x  4x  4x  4x  4x  4x  2x  2x


e|--------------------------------------------------------------------| 
B|--------------------------------------------------------------------| 
G|--------------------------------------------------------------------| 
D|---3---5---3---2---4---5---3---5---3--------------------------------| 
A|---5---3---1---1---0---4---5---3---1--------------------------------| 
E|--------------------------------------------------------------------| 
     8x  8x  8x  4x  2x  2x  8x  8x  8x




Chorus:
e|--------------------------------------------------------------------| 
B|-------------------|<----repeat---->|-------------------------------| 
G|--------6----------------5----7-------------------------------------| 
D|---7----6-----------3----5----7----7---------8----7-----------------| 
A|---7----4-----------3----3----5----7---------8----7-----------------| 
E|---5----------------1--------------5---------6----5-----------------| 
     8x   8x         16x  16x  16x  16x       16x  16x


e|---------------------------------------------------------------------| 
B|--------|4 times|----------------------------------------------------| 
G|---------------------------------------------------------------------| 
D|---3------7-7-7-------3-----7----------------------------------------| 
A|---3------7-7-7-------3-----7----------------------------------------| 
E|---1------5-5-5-------1-----5----------------------------------------| 
    16x     X          16x   16x


Repeat Verse


Repeat Chorus


Then 2x:
e|--|     3 times     |-----------------------------------------------| 
B|--------------------------------------------------------------------| 
G|---2-2-2-2-2-2--3--2----2-2-2---------------------------------------| 
D|---------------------------------5-5---3-3--------------------------| 
A|--------------------------------------------------------------------| 
E|--------------------------------------------------------------------| 


e|--------------------------------------------------------------------| 
B|--------------------------------------------------------------------| 
G|----------------------------2---2---2-----------3---3---3-----------| 
D|-------8---8---8----------3---3---3---3-------5---5---5---5---------| 
A|-----8---8---8---8--------------------------------------------------| 
E|---6--------------------1-------------------3-----------------------| 


                           |Second time end on this:
e|-------------------------|-------5---5---5--------------------------| 
B|-------------------------|------------------------------------------| 
G|-------6---6---6---------|------------------------------------------| 
D|-----7---7---7---7-------|-----7---7---7---7------------------------| 
A|-------------------------|------------------------------------------| 
E|---5---------------------|---5--------------------------------------| 




Ending: 
play 2x second part of chorus and then:


e|--------------------------------------------------------------------| 
B|--------------------------------------------------------------------| 
G|--------------------------------------------------------------------| 
D|---3---5---3-----7--------------------------------------------------| 
A|---5---3---1-----7--------------------------------------------------| 
E|-----------------5--------------------------------------------------| 
     8x  8x  8x    
            
Submit corrections

comments powered by Disqus
↑ Back to top | Wizo Tabs for Quadrat Im Kreis. Lyrics for acoustic guitar and electric guitar. Tablatures and chords are parodies/interpretations of the original songs. You may use it for private study, scholarship, research or language learning purposes only