>
 >
Klebstoff

Klebstoff Guitar Tabs

Wizo - Klebstoff chords, tabs, tablatures, lyrics

Guitar lessons | Add/correct | Request | Top 50 tabs Artists:  A B C D E F G H I J K L M N O P Q R S T U V W X Y Z 0-9

Klebstoff Guitar Tabs – Wizo

CD, Sheet music, Poster

Do you like Klebstoff? Share with your friends now
Tabs
WIZO - Klebstoff

Legende:
h - hammer on
. - palm muting
b - bend
r - release
/ - slide up
~ - let ring (=klingen lassen)

[Intro]
   a	      a		 a	   C D   a	    a	       a	F G
e-------------------------------------------------------------------------------|
B-------------------------------------------------------------------------------|
G--2-2-0h2h5--2-2-0h2h5--2-2-0h2---5-7---2-2-0h2h5--2-2-0h2h5--2-2-0h2----------|
D-------------------------------2--5-7--------------------------------2-3-5-----|
A----------------------------------3-5----------------------------------3-5-----|
E-----------------------------------------------------------------------1-3-----|	2x

[Strophe I]
   a	   F   G
e-----5--------3----|
B------5--------4---|
G----5--5----2---5--|
D---7----7--3-------|
A--7-------3--------|
E--5-------1--------|   2x
(auf untenstehende Akkorde anwenden)

	 a
Wenn die Tage schon seit Tagen
	 F	G
Auf sich warten lassen
       a
Dein Gehirn blockiert, dein Herz steht still
   F		   G
Du kannst es nicht fassen

(hier die Anschläge mal selber rausfinden ;) )
a
Schwanger!
		F		 G
Auf einmal viel mehr nur als ein Wort
    a
Wie war das jetzt mit Abtreibung?
      F		   G
War's richtig oder Mord?

[Strophe II]
  a	    C	      G		D		F	     D  E
e-----------------------------------------|---|--------------------|
B-----------------------------------------|---|--------------------|
G-----------55-5-55-5-----------77-7-77-7-|-3-|--------------7--9--|
D-77-7-77-7-55-5-55-5-55-5-55-5-77-7-77-7-|mal|-33-3--3-3-3--7--9--|
A-77-7-77-7-33-3-33-3-55-5-55-5-55-5-55-5-|---|-33-3--3-3-3--5--7--|
E-55-5-55-5-----------33-3-33-3-----------|---|-11-1--1-1-1--------|	2x
  ..   ..   ..   ..   ..   ..   ..   ..		..
(auf untenstehende Akkorde anwenden)

    a		   C				    a		  C
Die Frau mit Kinderwagen			Vom Vater du noch nichteinmal
	  G		   D			    G	      D
Siehst du jetzt mit andern Augen		Den Nachnamen kennst
a	       C				    a		     C
Würdest du als Mutter				Das kommt davon - so denkst du
    G		D					 G	  C
Überhaupt etwas taugen?				Wenn mit jedem du pennst
a	   C					a		    C
Quälende Gedanken				Eigentlich war's ja gut
     G		  D					   G	       D
Immerzu in deinem Hirn				Doch jetzt sollst du bezahln
    F						       F
Und soviel Sachen die dich jetzt		Für ne halbe Stunde Spaß
     D		   E				     D		    E
Noch zusätzlich verwirrn			Eine Zukunft voller Qualn

[Refrain]
	a
Wie aus Klebstoff
		  F
Erscheint dir die Zeit
	  a
Bist du alleine
		      G
Oder bist du schon zu zweit?
	  a
Das bange Warten
		F
Auf die Menstruation
	   G
Wird es ne Tochter
		 D  E
Oder wird es ein So-ohn?	2x

[Intro] (aber nur einmal ;) )
[Strophe II] (soll heißen: die Akkorde von Strophe II, nur diesmal
		die ganze Zeit mit Palm Muting)

[Brigde]
  F	 G	F       D  E
e-------------------------------|
B-------------------------------|
G-----------------------7--9----|
D-3333-3-5555-5-3333-3--7--9----|
A-3333-3-5555-5-3333-3--5--7----|
E-1111-1-3333-3-1111-1----------|
  ....	 ....
    F
Was sollst denn ausgerechnet
G
Du mit einem Kind
   F
Du stehst auf dem Dach
      D		     E
Deine Haare weh'n im Wind

[Refrain]
[Intro]
[Solo]
  a		   F	     G		 a			   F	       G
e--------------------------------------------------------------------------------------------------|
B-10b12r10---13-13-13--12-13-15--13-15---17-13----13--17-13----13--17-13-18-13-17-13----13---------|
G----------------------------------------------14-----------14-----------------------14------------|
D--------------------------------------------------------------------------------------------------|
A--------------------------------------------------------------------------------------------------|
E--------------------------------------------------------------------------------------------------|
  a			    F		G	 a		       F	   G
e---------------------------------------------12/17-17-17-17-20-17-----17-17-17-17-20-17-----------|
B-17-13----13--17-13----13--17-13-18-13-17-13----------------------20--------------------20--------|
G-------14-----------14----------------------------------------------------------------------------|
D--------------------------------------------------------------------------------------------------|
A--------------------------------------------------------------------------------------------------|
E--------------------------------------------------------------------------------------------------|
  a			   F	       G	    a			     F		 G
e17-17-17-17-20-17----17--20-17-22-17-20-17----17--20-17-22-17-20-17----17--20-17-22-17-20-17----17|
B-------------------20-----------------------20-----------------------20-----------------------20--|
G--------------------------------------------------------------------------------------------------|
D--------------------------------------------------------------------------------------------------|
A--------------------------------------------------------------------------------------------------|
E--------------------------------------------------------------------------------------------------|
  a			    F		 G	      a
e-20-17----17--20-17----17--20-17----17--20-17----17--17---~---------------------------------------|
B-------20-----------20-----------20-----------20-----20b22~---------------------------------------|
G--------------------------------------------------------------------------------------------------|
D--------------------------------------------------------------------------------------------------|
A--------------------------------------------------------------------------------------------------|
E--------------------------------------------------------------------------------------------------|

[Strophe I]
[Refrain]
[Bridge]





Comments


Popular Wizo tabs & chords
How Could I've Known Bass Tabs
9247 1 Chords
Alte Frau 1 Chords
Bleib Tapfer Tabs
Pippi Langstrumpf Tabs
Raum Der Zeit Tabs
Alte Frau Ukulele
Deutschpunkrevolte Ukulele
Die Letzte Sau Ukulele
Kein Gerede Ukulele


Song lyrics



↑ Back to top | Tablatures and chords are parodies/interpretations of the original songs. You may use it for private study, scholarship, research or language learning purposes only
© 2014 AZChords.com Contact us | Privacy policy | DMCA | Add/correct tabs | Request tabs | Top 50 tabs