» » »

Wizo, Gemein Bass tabs (ver.1)

Artists:  A B C D E F G H I J K L M N O P Q R S T U V W X Y Z # 

Gemein Bass tabs (ver.1)

Wizo Tabs
Rating:
5/5 (2 votes)
Hard to play? Try these video lessons and learn fast.
                --------------------
Gemein / wizo
--------------------


    verse
G]--------------------------------------------------------------- x3
D]---------------------------------------------------------------
A]---------------------------------------------------------------
E]-4/5--5-5-5--4-5------------------------------------------

G]---------------------------------------------------------------
D]---------------------------------------------------------------
A]---------------------------------------------------------------
E]-5-5-5-5--3-3-3-3--2-2-2-1-0-------------------------

                             x2
G]--------------------------¦-------------------------------------
D]--------------------------¦-------------------------------------
A]--------------------------¦-------------------------------------
E]-5-5-5-5-5-5-5--4/5-¦-5-5-5-5--3-3-3-3--2-2-2-2--1-1-1-1-0-0-0-0-0-0-0-0-0

verse

    chorus
G]---------------------------------------------------------------
D]---------------------------------------------------------------
A]-----------------5>-------------------5>--------------------
E]-0>--5>--3>-------0>--5>--3>--------0>--------------

G]---------------------------------------------------------------
D]---------------------------------------------------------------
A]------------5>-------------------5>-------------------------
E]-5>--3>--------0>--5>--3>-------0-1--5/6------------

verse
chorus x2

   outro
G]---------------------------------------------------------------  repeat
D]---------------------------------------------------------------
A]-1/2--2-2-2------------------------------------------------
E]----------------3-1------------------------------------------
            

comments powered by Disqus
↑ Back to top | Wizo Bass for Gemein. Lyrics for acoustic guitar and electric guitar. Tablatures and chords are parodies/interpretations of the original songs. You may use it for private study, scholarship, research or language learning purposes only