>
 >
Alter Bruder

Alter Bruder Guitar Tabs

Wizo - Alter Bruder chords, tabs, tablatures, lyrics

Guitar lessons | Add/correct | Request | Top 50 tabs Artists:  A B C D E F G H I J K L M N O P Q R S T U V W X Y Z 0-9

Alter Bruder Guitar Tabs – Wizo

CD, Sheet music, Poster

Do you like Alter Bruder? Share with your friends now
ChordsTabs
-------------------------------------------------------------------------------
-------------------------------------------------------------------------------

Tuning: EADGBE

Use this F:
--x--|-----|-----|----|
--x--|-----|-----|----|
-----|--x--|-----|----|
-----|-----|--x--|----|
-----|-----|-----|----|
-----|-----|-----|----|


INTRO

      Am             D               F     Am
------------------0----------2---------------------------------|
------------0--1-----3----3----3-----1--3--0----------0/1------|
---------2--------------2---------2-----------0--2---------2---|
------2--------------0---------------3-----2--------2----------|
---------0-----0---------------------------------0-------------|
---------------------------------------------------------------|
(Tod)

   Am             D               F  Am
---------------0----------2---------------------------|
---------0--1-----3----3----3-----1--0-------0/1------|
------2--------------2---------2--------2---------2---|
---2--------------0---------------3--2-----2----------|
------0-----0---------------------------0-------------|
------------------------------------------------------|


VERSE

   Am                                                                        Dm
--------------------0------------------------------------------------------------|
--------------0--1-----1-------0--------------------------0--1--0------1-0---3---|
-------2-----------------------------2-----------2-------------------2----2------|
---2---------------------------------------2---------------------------------0---|
-------0---------0-----0-------------0-----------0-----------0---------0---------|
---------------------------------------------------------------------------------|
   Ich hab heute meinen Bruder erschlagen, jetzt liegt er da draußen im Rosenbeet.

   Dm                         Am
--------------0--1------------0------------------------------------------------------------|
-------3------------------3--------1----------1-0---------3---1----------0--------0/1------|
---2----------------------------------2---------------------------------------2--------2---|
-------0---------0------------------------------2------------------------------------------|
------------------------------0-------0---------------------------------------0------------|
-------------------------------------------------------------------------------------------|
   Ich dachte er könnt' etwas mehr vertragen, erstaunlich wie schnell es doch geht.

   Am                                                                                 Dm
------------------------------0-----------------------------------------------------------|
----------------0-----1------------1---0-------------------0---1-0--------1-0---------3---|
-------2------------------------------------2--------2---------------2----------2---------|
---2--------------------------------------------2-------------------------------------0---|
-------0--------------0------------0--------0--------0---------0----------0---------------|
------------------------------------------------------------------------------------------|
   Ich weiß gar nicht wie's soweit kam denn wir verstanden uns eigentlich immer recht gut.

   Dm                       Am
---------------0-----1------0-----------------------------------------------|
------3------------------3-----1-------1----0---------3---1-----0-----------|
---2------------------------------2---------------------------------2---0---|
------0--------------0----------------------2-------------------------------|
----------------------------0-----0---------------------------------0-------|
------------------------------------------------------------------------3---|
   Er sieht so schön aus im Blumengrab mich stört nur ein wenig das Blut.


CHORUS

---3-----3----1--0---0-----------1--1---0----------------------|
-------------------------3--1/3---------------3---1---0/1------|
-----------------------------------------------------------2---|
---------------------------------0-----------------------------|
---3-----3----------------------------------------0------------|
---------------------3-----------------------------------------|
   Jeder muss einmal sterben;    Einmal kommt die Zeit

----------------------------0------------------------1---1/0---------0--1---|
--------------1------1---------------1----3-------------------1-3-----------|
---2----2--2------2------0--------------------------------------------------|
------------------------------------------0---------------------------------|
---------------------3------------------------------------------------------|
---1------------------------------------------------------------3-----------|
   Wenn deine letzte Stunde schlägt; Dann ist's auch für dich soweit;


Jeder muss einmal sterben
Einmal bist du dran
Wenn deine Zeit abgelaufen ist
Holt dich der Sensenmann

... repeat ... fade out ... whatever you like :)





Comments


Popular Wizo tabs & chords
All That She Wants Bass Tabs
Raum Der Zeit Bass Tabs
Bring Dich Um 1 Chords
Quadrat Im Kreis Chords
Seelenbrant Chords
Sylvia Chords
Ende Tabs
Jupp Tabs
Pippi Langstrumpf Ukulele
Sylvia Ukulele


Song lyrics



↑ Back to top | Tablatures and chords are parodies/interpretations of the original songs. You may use it for private study, scholarship, research or language learning purposes only
© 2014 AZChords.com Contact us | Privacy policy | DMCA | Add/correct tabs | Request tabs | Top 50 tabs