» » »

All That She Wants Bass tabs (ver.1)

Artists:  A B C D E F G H I J K L M N O P Q R S T U V W X Y Z # 

All That She Wants Bass tabs (ver.1)

Wizo
Rating:
0/5 (0 votes)

Hard to play? Try these video lessons and learn fast.
                -------------------------------------------------------------------------------
		  Wizo - All That She Wants (Ace of Base Cover)
-------------------------------------------------------------------------------


Tuning: Standard GDAE


Intro/Chorus

G |------------------------------|----------------------------------|
D |----1--3----------------------|-----1--3---------4h5h5--1h3h3----|
A |-3--------3----3-1-1----1-----|--3--------3---3------------------|
E |--------------------------1-1-|----------------------------------|  x2

Don't play during the verse.

Chorus x4

Don't play during the verse.

Chorus x2

Bridge/Outro

G |--------------------|
D |-------------------*|
A |--3-3---3---1-2----*|
E |----------3---------|  x9

Chorus x2
 
Repeat Outro x times ;)


I hope you like it! Please rate the tab!
For any questions or corrections send

- - - - - - - -
| h  Hammer on
            
Hard to play? Try these video lessons and learn fast. | Correct




comments powered by Disqus
↑ Back to top | Tablatures and chords are parodies/interpretations of the original songs. You may use it for private study, scholarship, research or language learning purposes only