» » »

Wipers, No Fair Tabs (ver.1)

Artists:  A B C D E F G H I J K L M N O P Q R S T U V W X Y Z # 

No Fair Tabs (ver.1)

Wipers Tabs
 Rating:
3.8/5 (5 votes)
No Fair lessons Tabs too difficult? Try these video lessons and learn fast
                
The second installment of the Wipers songbook thing I'm trying to accomplishhere.
As said before on my "Is This Real?" bookie thing, these sound kinda like it to
me, plus I'm not getting paid, blah blah blah. Buy all of the Wipers records, you
will not regret it.

Youth Of America
Wipers (Greg Sage, Brad Naish, Brad Davidson)
Recorded in 1981
All of these tabs are by John Sixkiller


No Fair:

E--------------------------------------
B------------3-3----3------3---3-5-5-3-
G------4-----4-4----4----4---4-4-4-4-4-
D----4---4---4-4----4----------4-4-4-4-
A--2-----------------------------------
E-----------------3----0---------------

CHORDS!
B5....G5....E5....G5

Out of the shadows...blistering lights...
Through the hallways of a sleepless night...
Every time I turn around, it's there...
Take a piece of our lives, didn't think we'd care?
Take away...the chore...
Take all of that, and more...
And now we're crying...
It's no fair...

(Bass)
G------------------------------------------------------------------------
D------------------------------------------------------------------------
A--2-2-2-2--2-2-2-2------------------------------------------------------
E-------------------3-3-3-3--3-3-3-3--0-0-0-0--0-0-0-0--3-3-3-3--3-3-3-3-

(Guitar)
E--------------------------------
B--------------------------------
G--------------------------------
D--------------------------------
A--2---4-------2-----------------
E---------3---------0------0--3--

E------------------------------------------------------
B------------------------------------------------------
G--4-4-4--5-5-5--0-0-0--4--4-4\------------------------
D-------------------------------2-2-2--2-2--5-5-5-5-7/-
A------------------------------------------------------
E------------------------------------------------------

B                    G
Through the shadows, blistering lights
B                     G
As the dreams of your darkness died
B                G                       G A
Everytime I turn around you're there...
B            G             B      C#         G
Take a piece of our lives, didn't think that we would care...
B            G             A        G        A
Now it's, no it's no fair, no fair, no fair, no fair...

(interlude)
E------------------------------------------------------------
B------------------------------------------------------------
G--4-------4----------6-7-6-7---6-7-6-7---6-7-6-7---6-7-6-4--
D--4---5---4-----5-------------------------------------------
A--2---5---2/3---5-------------------------------------------
E------3---------3-------------------------------------------

SOLO:
G...F#...G\F#...E...F#...E...D#
F#...E...D#...F#...E...D#...E...D...C#

B
Take a piece
G
Of our lives!?
B      C#         G
Didn't think that we would care?
B            G             A        G        A
Now it's, no it's no fair, no fair, no fair, no fair...

E------------------------------------------------------
B------------------------------------------------------
G--4-4-4--5-5-5--0-0-0--4--4-4\------------------------
D-------------------------------2-2-2--2-2--5-5-5-5-7/-
A------------------------------------------------------
E------------------------------------------------------
            
Submit corrections

comments powered by Disqus
↑ Back to top | Wipers Tabs for No Fair. Lyrics for acoustic guitar and electric guitar. Tablatures and chords are parodies/interpretations of the original songs. You may use it for private study, scholarship, research or language learning purposes only