» » »

Wipers, Can This Be Tabs (ver.2)

Artists:  A B C D E F G H I J K L M N O P Q R S T U V W X Y Z # 

Can This Be Tabs (ver.2)

Wipers Tabs
Rating:
0/5 (0 votes)
Hard to play? Try these video lessons and learn fast.
                The other tab for this song is all wrong.  Well here's what I've got, I'm positive this is right.


Tuning:Standard


Intro:(this is played on the lower part of the neck)
e|------------------------------------|
B|------------------------------------|
G|------------------------------------|
D|-1212-1212-1414-1212-121212121212---| 4x
A|-1212-1010-1414-1212-121212121212---|
E|-1010-1010-1414-1212-121212121212---|
Verse
e|------------------------|
B|------------------------|
G|------------------------|
D|-101010101010-777777----| 2x
A|-101010101010-777777----|
E|-101010101010-777777----|

e|---------------------------|
B|---------------------------|
G|---------------------------| 2x
D|-171717171717-121212121212-|
A|-171717171717-121212121212-|
E|-171717171717-121212121212-|
Chorus
e|-------------------------------------|
B|-------------------------------------|
G|-------------------------------------|
D|------------------10-11-121212121212-| 2x
A|---------10-11-12-------121212121212-|
E|-10-11-12---------------121212121212-|
Interlude/solo
e|----------------------------1212---------|
B|----------------------------1212---------|
G|----------------------------1212---1414--| 4x
D|-10---10---10----1212-1212---------1414--|
A|-10---10---10----1212-1010---------1414--|
E|-10---10---10----1010-1010---------------|

e|----------------------------------------|
B|----------------------------------------|
G|----------------------------------------|
D|-1212-1212-14141414-1212-1010-12121212--|
A|-1212-1010-14141414-1212-1010-12121212--|
E|-1010-1010-14141414-1212-1010-12121212--|
Outro
e|----------------------------------------------|
B|----------------------------------------------|
G|---------------------------------------12-14--|
D|-----------------10-11--------10-11-12--------|
A|---------10-11-12-----10-11-12----------------|
E|-10-11-12-------------------------------------|
            

comments powered by Disqus
↑ Back to top | Wipers Tabs for Can This Be. Lyrics for acoustic guitar and electric guitar. Tablatures and chords are parodies/interpretations of the original songs. You may use it for private study, scholarship, research or language learning purposes only