» » »

Nod Ya Head Tabs (ver.1)

Artists:  A B C D E F G H I J K L M N O P Q R S T U V W X Y Z # 

Nod Ya Head Tabs (ver.1)

Will Smith
Rating:
0/5 (0 votes)

Hard to play? Try these video lessons and learn fast.
                Tuning: Standard

One of the few raps I like. This song has a great riff at the beginning and throughout
song, however sometimes you may be confused with the guitar and the bass, so follow riffs
& 2 as they are definite. However I am unsure on the intro. If you think it is wrong 
comment. Thanks, enjoy playing, it’s a good riff for beginners too!

Intro
E|-------------------------------------|
B|-------------------------------------|
G|----333x---x3-xx151515-8/7-5-7-5-----|
D|----333x---x3-xx151515-8/7-5-7-5-7-5-|
A|----111x---x1-xx131313-5-5-3-5-3-7-5-|
E|-33------3-----------------------5-3-|

Riff
E|---------------------------------------|
B|---------------------------------------|
G|---------------------------------------|
D|---------------------------------------|
A|-3h4p3-1--------------3h4p3-1----------|
E|---------3--1-2-3-------------3--1-2-3-|

E|-------------------------------------|
B|-------------------------------------|
G|--------------------------------8-10-|
D|-3h4p3-1--------------3h4p3-1---8-10-|
A|---------3--1-2-3-------------3-6--8-|
E|-------------------------------------|

Riff 2
Same as 1 but different ending, so play like this:
E|---------------------------------------|
B|---------------------------------------|
G|---------------------------------------|
D|---------------------------------------|
A|-3h4p3-1--------------3h4p3-1----------|
E|---------3--1-2-3-------------3--1-2-3-|

E|-----------------------------------------|
B|-----------------------------------------|
G|--------------------------------5-7-8-10-|
D|-3h4p3-1--------------3h4p3-1---5-7-8-10-|
A|---------3--1-2-3-------------3-3-5-6--8-|
E|-----------------------------------------|

That’s basically it. Follow this throughout the song and you’ve got it sussed. Some bits
different but from this you can work it out really. Thanks, happy playing and peace out =D
            
Hard to play? Try these video lessons and learn fast. | Correct




comments powered by Disqus
↑ Back to top | Tablatures and chords are parodies/interpretations of the original songs. You may use it for private study, scholarship, research or language learning purposes only