» » »

Better Man Chords (ver.1)

Artists:  A B C D E F G H I J K L M N O P Q R S T U V W X Y Z # 

Better Man Chords (ver.1)

Williams Robbie
Rating:
0/5 (0 votes)

Tabs too difficult? Try these video lessons and learn fast.
                	
Intro Riff:

-------2-----2---2---------2-----2---2---
----------------------------------------- 
----3-------3-----3-----4-------4-----4--
-4--------4-----4----4--------4-----4----
-----------------------------------------
-----------------------------------------

-------2-----2---2-----------2-----------
-----------------------------2-----------
----3-------3-----3-------4--4-----------
-4--------4-----4------4-----4-----------
-----------------------------------------
-----------------------------------------

Verse 1:

                 F#                 D#m
Send someone to love me, I need to rest in arms

         B                      C#  
Keep me safe harm, In pouring rain

                 F#             D#m 
Give me endless summer, Lord I fear the cold

          B                     C#
Feel I'm getting old, Before my time


Chorus:

      A#m             C#     
As my soul heals the shame

        A#m              F#m     
I will grow through this pain

           B         C#      
Lord I'm doing all I can

                  
To be a better man

-------2-----2---2---2---
---------------------2---
----3-------3-----3--4---
-4--------4-----4----4---
-------------------------
-------------------------


Verse 2: 

               F#                     D#m               
Go easy on my conscience, 'Cause it's not my fault

             B                             C#   
I know that I've been taught, To take the blame

                  F#          D#m   
Rest assured my angels, Will catch my tears

         B                   C#
Walk me out of here, I'm in pain


Repeat Chorus

Bridge:

 Bm7                                  C#      
Once you've found that lover, you're homeward bound

         Bm7                 F#m             
Love is all around, love is all around

  Bm7                       C#
I know some have fallen on stony ground

            Bm7         D#m  C#
But love is all around

Repeat Verse 1
Repeat Chorus  

Play intro again


You can contact me at
for comments, corrections, or just to chat.
btw i'm 15/m from Malaysia
            
Tabs too difficult? Try these video lessons and learn fast.


comments powered by Disqus
↑ Back to top | Tablatures and chords are parodies/interpretations of the original songs. You may use it for private study, scholarship, research or language learning purposes only