» » »

Ribs And Whiskey Tabs (ver.1)

Artists:  A B C D E F G H I J K L M N O P Q R S T U V W X Y Z # 

Ribs And Whiskey Tabs (ver.1)

Widespread Panic
Rating:
0/5 (0 votes)

Tabs too difficult? Try these video lessons and learn fast.
                (drop the high E down to a D)
       D                C
|----------------7------5-----|
|-----/7------------7------5--|
|-----------------------------|
|-----------------------------|
|-----------------------------|
|-----------------------------|
Well I seen your sister naked

    G
|-------------------------------------|
|-----3-------------------------------|
|--/3----0-----3\0--------------------|
|-----------------------/3----/3--0---|
|-------------------------------------|
|-------------------------------------|
         Ain't nothing I tried to see

    G
|-----------------------|
|-----------------------|
|.--0-----------3---0--.|
|.----3-0-3\2-0---0----.|
|-----------------------|
|-----------------------|

    D                       C
|-------------7-------------10---------|
|--/7----------------7-----------10----|
|--------------------------------------|
|--------------------------------------|
|--------------------------------------|
|--------------------------------------|
  I seen your sister by the pool there

     G
|------5-----------------------------|
|---/5-------------------------------|
|----------0---3\0-------------------|
|-----------------------/3----/3--0--|
|------------------------------------|
|------------------------------------|
               Nothing I tried to see

    G
|-----------------------|
|-----------------------|
|.--0-----------3---0--.|
|.----3-0-3\2-0---0----.|
|-----------------------|
|-----------------------|

       D                 C
|------7\5-------------------------|
|------7\5-------------3/5---------|
|------7\5-------------3/5---------|
|----------------------------------|
|----------------------------------|
|----------------------------------|
 Well, I hope it's not huntin' day

|----------------------------------------|
|----------------------------------------|
|--------------0----3\0------------------|
|--------------------------/3--/3-----0--|
|----------------------------------------|
|----------------------------------------|
 Hope it's not your daddy's shootin' day

    G
|-----------------------|
|-----------------------|
|.--0-----------3---0--.|
|.----3-0-3\2-0---0----.|
|-----------------------|
|-----------------------|

Repeat above without lyrics

      G
|------------------------------------------------|
|------------------------------------------------|
|.----0------------------------------------------|
|.----0------------------------------------------|
|------------------------------------------------|
|------------------------------------------------|
Well, ribs and whiskey making my mind feel tight
      Whiskey, making my mind (body) feel hot

|---------------------|
|---------------------|
|--0-----------3---0-.|
|---3-0-3\2-0---0----.|
|---------------------|
|---------------------|

      D                      C
|------------------------------------|
|------------------------------------|
|-----2-/3-------------------3/5-----|
|-----2-/3-------------------3/5-----|
|------------------------------------|
|------------------------------------|
   If you won't be my love,

|-------------------------------------------------|
|-------------------------------------------------|
|---------------------0----3\0--------------------|
|----------------------------------/3----/3-0-----|
|-------------------------------------------------|
|-------------------------------------------------|
  I'm gonna find me a new place to spend my night

    G
|-----------------------|
|-----------------------|
|.--0-----------3---0--.|
|.----3-0-3\2-0---0----.|
|-----------------------|
|-----------------------|

Repeat from the top
            
Tabs too difficult? Try these video lessons and learn fast.




comments powered by Disqus
↑ Back to top | Tablatures and chords are parodies/interpretations of the original songs. You may use it for private study, scholarship, research or language learning purposes only