» » »

Widespread Panic, Old Joe Chords (ver.1)

Artists:  A B C D E F G H I J K L M N O P Q R S T U V W X Y Z # 

Old Joe Chords (ver.1)

Widespread Panic Tabs
 Rating:
4/5 (4 votes)
Old Joe lessons Tabs too difficult? Try these video lessons and learn fast
1
                Chords:
|---3----3----0----2----8-----|
|---3----0----1----1----11----|
|---0----0----2----2----9-----|
|---0----2----2----0----8-----|
|---2----3----0---------10----|
|---3-------------------8-----|
    G    C    Am   D7

          G       C     G
Well, Old Joe, he moves slow
   C        G                  C     G               Am
He likes to look at things and paint pictures on his radio
D7                                   G
    He says they make the songs look better.

    /   /   /       /   /   /    /   /   /     /   /   /
|---3------------|--3----------|------------|------3------|
|---3------------|--3----------|------------|------3------|
|---0------h-p---|--0----------|------------|------0------|
|---0-----0^2^0--|--0----------|------------|------0------|
|---2------------|--2-------2--|-3----------|------2------|
|---3------------|--3-----3----|---------2--|--3---3------|

    G    C   G
One day, Joe met a girl
C     G
Sweet breathing thing
C       G                    Am
Dancin' naked, nudey, in the winter snow
D7                      G
   Underneath her dozen sweaters

Chorus 1:
                 Am
And someday, somewhere
D7                        G          C
   Some things get hit by lightin'
                     Am
And some things just don't
C7                       G
   Hope we live long and lucky

Chorus 2:
                        Am
At least one things for sure
D7             G
   Or maybe it isn't.
                   Am
No matter where we are
C7                           G
   It's this life that we're livin' in

Am   D7   G (x3)
Am   C7   G

(Chorus 2)

(Chorus 1)

          G       C     G
Well, Old Joe, he moves slow
   C        G
He likes to look at things
            
Submit corrections

comments powered by Disqus
↑ Back to top | Widespread Panic Chords for Old Joe. Lyrics for acoustic guitar and electric guitar. 1 Tablatures and chords are parodies/interpretations of the original songs. You may use it for private study, scholarship, research or language learning purposes only