» » »

Nobody's Loss Tabs (ver.1)

Artists:  A B C D E F G H I J K L M N O P Q R S T U V W X Y Z # 

Nobody's Loss Tabs (ver.1)

Widespread Panic
Rating:
0/5 (0 votes)

Hard to play? Try these video lessons and learn fast.
                Intro.:
    /       /       /    /h p
|---3---3---3---1---1----0^1^0---|
|---0---0---0---0---0----0^1^0---|
|---0---0---0---0---0------------|
|---0---0------------------------|
|---2---2------------------------|
|---3---3------------------------|

    G           G7
Verse 1:
G                    Am               C        G      G7
   And we're rolling down the windows for this ride
G                       Am   F                G      G7
   And there's not much time   to take things slow
G                                 Am
  We will turn our heads into the sunrise
                   C      G      G7
As the storms rage in the west
                Am      C           G     Bm
And we're goin' down to see my lady luck

Chorus:
    Em                           Am             G
Now I'm not really interested in telling you my mind
     Em                                 Am
Just let me drag another before for you go,
             G
I'm a broken wire
      Em
Yeah, nobody knows where to find us
          Am             Am  C  G   G7
'Cause it ain't nobody's loss

Verse 2:
And I can't decide if this place is make believe
And worked all my life to turn sleet to snow
We will turn our heads into the sunset
As the storms rage in the east
And we're goin' down to see my lady luck

(Chorus)
     h                        h
|---5^7--7--7---7-7-7-5------5^7--5------------7------|
|------------------------------------8----3/5-----8---|
|-----------------------------------------------------|
|-----------------------------------------------------|
|-----------------------------------------------------|
|-----------------------------------------------------|

|---7--10--7--7--7--5-------h-----7----------|
|--------------------------3^5--5----5--3----|
|--------------------------------------------|
|--------------------------------------------|
|--------------------------------------------|
|--------------------------------------------|

     p         p         p
|--10^7--10--10^7--10--10^7--10---12--12/15------------|
|--------------------------------------------/12--10---|
|------------------------------------------------------|
|------------------------------------------------------|
|------------------------------------------------------|
|------------------------------------------------------|

|-----h--p--------12--12--12--10-------|
|---10^12^10----------------------12---|
|-------------12-----------------------|
|--------------------------------------|
|--------------------------------------|
|--------------------------------------|


|--7--7--10--/12--12------------|
|---------------------/12--10---|
|-------------------------------|
|-------------------------------|
|-------------------------------|
|-------------------------------|

|-----h-p----7----------------10----------|
|---10^8^10-----10---8--8--8------8---7---|
|-----------------------------------------|
|-----------------------------------------|
|-----------------------------------------|
|-----------------------------------------|


(Chorus)

Bridge:
F                     D
  Well, it's nobody's loss
F        D
Nobody's loss
F        D
Nobody's loss
Am C      G
No-body's loss
            
Hard to play? Try these video lessons and learn fast. | Correct




comments powered by Disqus
↑ Back to top | Tablatures and chords are parodies/interpretations of the original songs. You may use it for private study, scholarship, research or language learning purposes only