» » »

Imitation Leather Shoes Chords (ver.1)

Artists:  A B C D E F G H I J K L M N O P Q R S T U V W X Y Z # 

Imitation Leather Shoes Chords (ver.1)

Widespread Panic
Rating:
0/5 (0 votes)

Hard to play? Try these video lessons and learn fast.
                Main Riff:
    /  /    /      /       /       /   /  /
|-----------------------|---------------------|
|-----------------------|---------------------|
|-----------------------|-------1--1---3--2---|
|---2--2--2-----2--2--2-|-------2--2---3--2---|
|---2--2--2-----2--2--2-|---p---2--2---1--0---|
|---0--0--0-3^0-0--0--0-|--3^0--0--0----------|
    E                                  Bb A

/  /    /      /       /       /   /  /
|-----------------------|---------------------|
|-----------------------|---------------------|
|-----------------------|-------1--1---3--4---|
|---2--2--2-----2--2--2-|-------2--2---3--4---|
|---2--2--2-----2--2--2-|---p---2--2---1--2---|
|---0--0--0-3^0-0--0--0-|--3^0--0--0----------|
    E                                  Bb B

Verse 1:
E                                 Bb A
  My little brother is an insect
E                                    Bb B
  He likes to crawl around his room
E                                          Bb A
  His mother shudders at the sight of him
E                             Bb B
  His pappy is a businessman

Verse 2:
Every move he makes is torture
He cannot speak words anymore
Our sister likes to flip him on his back
And watch little brother squirm

Chorus:
A
I really like the way you look in
     F#         D      E
Your imitation leather shoes
    B             C       A  E
And I don't wanna fake it anymore

Verse 3:
He took a trip to California
Strung out on Hollywood and Vine
The Tinsel-Towners came from miles around
That little bugger felt at home

(Chorus)

Main Riff once through followed by 7 measures of B

   /   /   /  /     /  /  /  /  
|----------------|-------------|
|----------------|-------------|
|--3-4---0-2-----|-------------|
|-------------3--|--1----------|
|----------------|-------------|
|----------------|-------------|

Back to Main Riff

Verse 4:
My brother paints a pretty picture
These things are bad as these things get
Like dreaming 'bout the Mona Lisa
And waking up at Ruby Ridge

(Chorus)

Second half of Main Riff

(Chorus)

| /  /  /  / | /  /  /  / | /
  E            C     A      E
                        Any-more
 /  /  / | /  /  /  / | /
           C     A      E
                        Any-more
 /  /  / | /  /  /  / | /  /  /  / |
           C     A      E
                        Any-more

   /   /   /  /     /  /  /  /  
|----------------|-------------|
|----------------|-------------|
|--3-4---0-2-----|-------------|
|-------------3--|--1----------|
|----------------|-------------|
|----------------|-------------|

End on E
            
Hard to play? Try these video lessons and learn fast. | Correct




comments powered by Disqus
↑ Back to top | Tablatures and chords are parodies/interpretations of the original songs. You may use it for private study, scholarship, research or language learning purposes only