» » »

Fishwater Chords (ver.1)

Artists:  A B C D E F G H I J K L M N O P Q R S T U V W X Y Z # 

Fishwater Chords (ver.1)

Widespread Panic
Rating:
5/5 (1 vote)

Hard to play? Try these video lessons and learn fast.
                |-0----0------0--0--0---0--3--2---|
|-1----1------1--1--1---1--4--3---|
|-0----0------0--0--0---0--3--2---|Am7 theme
|-2----2------2--2--2---2---------|
|-0----0----0-0--3--0---0---------|
|----3---0-3----------3-----------|

Verse 1:
Four train days                                     -|
Get me back to New Orleans                           |
Drink more fishwater there                           |
Than any whale's mama ever seen                      |  Am7
Alright tonight                                      | theme
I've been fueling my dreams eatin greens and beans   |
When I get back down there                           |
I'm gonna drink more fish stew                       |
Than all the big fishes do                          -|

Chorus:
                 C
And I still want more
             Am7
I still want more
            C
            more
             Am7
I still want more

Verse 2:
Gimme tonight                                       -|
Gonna dream my way on back                           |
Spend my life down there                             |  Am7
Down on that bourbon street                          | theme
Watch my money, and mind my leg down in New Orleans  |
Can't tell which mens turns womens there             |
And which womens just turns mean                    -|

(Chorus)

|-0-0-0---0-0-0------0-0-0-0--0----------|
|-1-1-1---1-1-1------1-1-1-1--1----------|
|-0-0-0---0-0-0------0-0-0-0--0----------|
|-2-2-2---2-2-2------2-2-2-2--2----------|
|-3-3-3-2-0-3-0------x-x-x-0--3----------|
|--------------------3-3-3---------------|

Here's the outro that Houser and Schools plays
|-------------------------------------------|
|------------------5-5----------------------|
|------------------5-5----------------------|
|--7-7-5-7-5-7----5---7-7-5-7-5-7-----------|
|--0-0-0-0-0-0-567----0-0-0-0-0-0-7-6-5-3-0-|
|-------------------------------------------|
            
Hard to play? Try these video lessons and learn fast. | Correct




comments powered by Disqus
↑ Back to top | Tablatures and chords are parodies/interpretations of the original songs. You may use it for private study, scholarship, research or language learning purposes only