>
 >
Casa Del Grillo

Casa Del Grillo Guitar Tabs

Widespread Panic - Casa Del Grillo chords, tabs, tablatures, lyrics

Guitar lessons | Add/correct | Request | Top 50 tabs Artists:  A B C D E F G H I J K L M N O P Q R S T U V W X Y Z 0-9

Casa Del Grillo Guitar Tabs – Widespread Panic

CD, Sheet music, Poster

Do you like Casa Del Grillo? Share with your friends now
Tabs
   v             v   v       ^          v    
|---2-------------2--------1--0--------------|
|---3---2p3p2-----3-------1---0--------------|
|---4---------4---4------2----2---1/2/4--3---|
|---4-----------4-4-----3----------------4---|
|---2-------------2----3----------2/3/5--4---|
|---------------------1------------------2---|

      v ^ v ^               v       ^ v         v
|---2-2-2-2-------------2--------1--0-1------------|
|---3-3-3-3---2p3p2-----3-------1---0-1------------|
|---4-4-4-4---------4---4------2----2-2--1/2/4--3--|
|---4-4-4-4-----------4-4-----3-----------------4--|
|---2-2-2-2-------------2----3-----------2/3/5--4--|
|---------------------------1-------------------2--|
Verse Theme:
    /   /   /   /       /   /   /   /
|--------------------|--2-----2-----2---|
|--------------------|--3-----3-----3---|
|.-------------------|--4-----4-----4--.|
|.--------0-2-4-2-4--|--4-----4-----4--.|
|--------------------|--2-----2-----2---|
|--------------------|------------------|
                        Bm

    /   /   /   /      /   /   /   /
|-------------------|--2-----2-----2--|
|-------------------|--2-----2-----2--|
|-------------------|--3-----3-----3--|
|-----------4-4-2-0-|--4-----4-----4--|
|-------------------|--4-----4-----4--|
|-------------------|--2-----2-----2--|
                       F#

   /   /   /   /       /   /   /   /
|-------------------|--2-----2-----2--|
|-------------------|--3-----3-----3--|
|-------------------|--4-----4-----4--|
|----------4-4-2-0--|--4-----4-----4--|
|-------------------|--2-----2-----2--|
|-------------------|-----------------|
                       Bm

Verse 1:
Bm
Listen to the song de los grillos
        F#                           Bm
Breathe deeply as many sounds become one sound
   Bm
Suelta el aliento
   F#                Bm
Descansa quieto esperando

Bridge:
   /   /   /   /     /   /   /   /     /   /   /   /
|-----------------|--2-----2-----2--|--3-----3-----3--|
|-----------------|--3-----3-----3--|--3-----3-----3--|
|-----------------|--4-----4-----4--|--0-----0-----0--|
|--2---4---5---7--|--4-----4-----4--|--0-----0-----0--|
|--2---4---5---7--|--2-----2-----2--|--2-----2-----2--|
|--0---2---3---5--|-----------------|--3-----3-----3--|
   E   F#  G   A     Bm                G

   /   /   /   /     /   /   /   /     /   /   /   /
|--2-----2-----2--|-----------------|--2-----2-----2--|
|--3-----3-----3--|-----------------|--3-----3-----3--|
|--4-----4-----4--|-----------------|--4-----4-----4--|
|--4-----4-----4--|--2---4---5---7--|--4-----4-----4--|
|--2-----2-----2--|--2---4---5---7--|--2-----2-----2--|
|-----------------|--0---2---3---5--|-----------------|
   Bm                E   F#  G   A     Bm

   /   /   /   /
|--3-----3-----3--|--2--------------|
|--3-----3-----3--|--2--------------|
|--0-----0-----0--|--3--------------|
|--0-----0-----0--|--4--------------|
|--2-----2-----2--|--4--------------|
|--3-----3-----3--|--2--------------|
   G                 F#

Verse 2:
All souls come into the Casa del Grillo
By the sound the silence begins a song again
Suelta el aliento
Descansa quieto esperando

(Bridge)

Chorus (words aren't quite right):
A   C#   E        D#    D
Recuerdo todo los que amas
A     C#          E             D# D
Sobre la Tierra y no sobre la Tierra
A     C#       E             D#    D
Así también sé hasta con los que amas
A          C#       E       D# D# D
Ángeles y seres que esperan serlo

Jam over verse and bridge

(Chorus)

Jam over verse

Verse 3:
All souls come into the Casa del Grillo
In the song the silence begins a sound again
Listen to the song de los grillos
Breathe deeply as many songs become one
Suelta el aliento
Descansa quieto esperando

(Bridge)

(Chorus)

A   C#   E        D#    D
Recuerdo todo los que amas
A     C#          E             D# D
Sobre la Tierra y no sobre la Tierra
A       C#     E        D#   D
Respira hondo, siente a los ???
A          C#     E          D# D# D
Angels and angels waiting to be
     D# D# D
Gracias
D# D# D
Grillos
D# D# D
D# D# D





Comments


Popular Widespread Panic tabs & chords
Ain't Life Grand Chords
Barstools And Dreamers Chords
Christmas Katie Chords
Imitation Leather Shoes Chords
Weight Of The World Chords
A Of D Tabs
Driving Song Tabs
Pilgrims Tabs
Rebirtha Tabs
Gradle Ukulele


Song lyrics



↑ Back to top | Tablatures and chords are parodies/interpretations of the original songs. You may use it for private study, scholarship, research or language learning purposes only
© 2014 AZChords.com Contact us | Privacy policy | DMCA | Add/correct tabs | Request tabs | Top 50 tabs