» » »

Widespread Panic, Barstools And Dreamers Chords (ver.1)

Artists:  A B C D E F G H I J K L M N O P Q R S T U V W X Y Z # 

Barstools And Dreamers Chords (ver.1)

Widespread Panic Tabs
 Rating:
4/5 (4 votes)
Barstools And Dreamers lessons Tabs too difficult? Try these video lessons and learn fast
                Main Chords:                            1st played: 1-1-87
|---2-----2------0---3---|
|---2-----2------2---3---|
|---2-----4------2---0---|
|---4-----4------2---0---|
|---4-----2------0---2---|
|---2-----x------x---3---|
    F#m   B      A   G

Main Slide Riff:
|----------------------------------|
|--------/9--------------11/12\12--|
|--/9--------9--9/11---------------|
|----------------------------------|
|----------------------------------|
|----------------------------------|

    F#m
The barstools built for dreamers
      B            A
We'll fit fine and find
 G                F#m
   All the worlds dreams have died
      F#m
But tonight they're only taking thirsty people
            B                A
Who've been pullin' on their drinks
 G                          F#m
   From a glass that lies a bar length wide
           B                             F#m
And in the drink there swim the swimmers
    B                      F#m
And those whose swims have dried
      F#m
Take another look, take another pull
Take another pour, take another pull
           F#m
Before you take a ride

E


E
Heir to an open barstool, there's one by "Mary the Fool"
B  Bb F#m  F#m    B  Bb  F#m
Ma-ry sees the bartender's knees
        A         Ab     F#m    E    C#  B   Ab   F#m E
And she says that it's a bottle that she was born to  be
      E
And I say, "that's cool.. just right, right for a fool."
B   Bb   F#m      F#m B      Bb   F#m
Thinkin' whiskey, she bought me a drink
A       Ab      F#m  E  C#   B   G  F#m E
I won't cross a word of what the la-dy  thinks
F#m

(same chords as above)
Pray I don't cross what the lady thinks
She's been thinking out too loud though
This time I can't hear the pinball machine
Well there's a birdman playing tiny little sideways bongos
Pulling all those words down, down, down
Look at how the numbers glow
In the glass there rolls the iron ball
And a quarter states the toll that's all (that's all)
You take another look, take another pull
Take another pour, take another pull
Before you take a chance

Look at your hands, they're just right for a new kinda dance
Just forget what your bodies just done
And ride all the waves that the drums rest on
Like the smallest babies do,
   ya' know the little newborn babies do
If there's some food that the moon feeds on
A baby won't hold it back, won't hold it back

Mike solo over an E

JB slide solo over an F#

Bridge Riff (w/ variations on the melody):
    p
|--14^11----p----------------------------------------------|
|---------14^11--11----------------------------------------|
|--------------------13(b15)--13(b15)13-11--13-11--11\9----|
|----------------------------------------------------------|
|----------------------------------------------------------|
|----------------------------------------------------------|

    p
|-12^9----p-----------------------------------------|
|-------12^9--9-------------------------------------|
|----------------11(b13)--11(b13)11-9--11-9--9/11---|
|---------------------------------------------------|
|---------------------------------------------------|
|---------------------------------------------------|

The slide at the end of each line lets you change
hand positions to where you need to be for the next part.
Just alternate the above over and over.

Baby doesn't know what I just said
Baby doesn't know the words that I just used
Babies haven't learned any words yet
Babies haven't been used by any words yet
People only think, people only talk
People only think in words they already know
The babies haven't learned any words yet (no)
They only know what the people feel
They don't really care what the people think
They only care what the people feel
Music only knows what the people feel
Babies only care and hear what the people feel, feel

Finale:

B B B  A   B B B  A

|----------12-------------------------------------------|
|--12(b14)----12(b14)---12-10---------------------------|
|------------------------------11-10-9------------------|
|---------------------------------------11-10-9---------|
|------------------------------------------------12--9--|
|-------------------------------------------------------|
   G                     F#
            
Submit corrections

comments powered by Disqus
↑ Back to top | Widespread Panic Chords for Barstools And Dreamers. Lyrics for acoustic guitar and electric guitar. Tablatures and chords are parodies/interpretations of the original songs. You may use it for private study, scholarship, research or language learning purposes only