>
 >
Why 1

Why 1 Guitar Tabs

Wide Mouth Mason - Why 1 chords, tabs, tablatures, lyrics

Guitar lessons | Add/correct | Request | Top 50 tabs Artists:  A B C D E F G H I J K L M N O P Q R S T U V W X Y Z 0-9

Why 1 Guitar Tabs – Wide Mouth Mason

CD, Sheet music, Poster

Do you like Why 1? Share with your friends now
TabsTabs v2


Intro:  wah pedal forward on these notes
e|----6/-------6/-------------9---7-------------------|
b|----6/-------6/------------9-------9-8-7--------8/--|
g|----6/-------6/-----------9----------------9-6------|
d|----------------------------------------------------|
a|----------------------------------------------------|
E|----------------------------------------------------|


Riff A:
e|------------------------------------------------------------------------------|
b|---3--2--------------------------------------3--2-----------------------------|
g|---5--4--------------------------------------5--4-----------------------------|
d|---4--3--------------------------------------4--3------------------------0-2--|
a|---5--4-------------0-2-3-4-0-2-3-4----------5--4-------------0-2-3-4-------4-|
E|--------------0h4--------------------------------------0h4--------------------|

-----------------------------------------------------------------------------|
-----------------------------------------------------------------------------|
---3--2--------------------------------------3--2----------------------------|
---4--3--------------------------------------4--3----------------------------|
---5--4-------------0-2-3-4-0-2-3-4----------5--4-----------0-2-3-4----------|
-------------0h4--------------------------------------0h4-------------0------|

Verse:
 It just a funky rhythm with this chord E9
e|------------|
b|-------7----|
g|-------7----|
d|-------6----|
a|-------7----|
E|------------|


Chorus:
e|-----2--------------------0-----------------------------|
b|-----2-----------------------------2-----4-------2------|
g|-----3---------------1-------------2-----4-------4------|
d|-----4-----------------------------2-----4-------3------|  x4
a|-----4-----------------------0---------2---------4------|
E|--2--------0---0----------------------------------------|

Riff A:
e|--------------------------------------------------------------------------------|
b|---3--2--------------------------------------3--2-------------------------------|
g|---5--4--------------------------------------5--4-------------------------------|
d|---4--3--------------------------------------4--3------------------------0-2----|
a|---5--4-------------0-2-3-4-0-2-3-4----------5--4-------------0-2-3-4--------4--|
E|--------------0h4--------------------------------------0h4----------------------|


---------------------------------------------------------------------------|
---3--2--------------------------------------3--2--------------------------|
---5--4--------------------------------------5--4--------------------------|
---4--3--------------------------------------4--3--------------------------|
---5--4-------------0-2-3-4-0-2-3-4----------5--4-----------0-2-3-4--------|
-------------0h4--------------------------------------0h4-------------0----|


Verse:
e|------------|
b|-------7----|
g|-------7----|
d|-------6----|
a|-------7----|
E|------------|


Bridge:
e|---6-6-6-4-4-4-4-4-4-4-4-----4-------|          ---6/--6/-|
b|---5-5-5-7-7-5-5-4-4-4-4-4-4-4-------|          ---6/--6/-|
g|---6-6-6-6-6-6-6-6-6-6-6-4-4-6-------| x 2      ---6/--6/-|
d|---4-4-4-4-4-4-4-4-4-4-4-4-4-4-------|          ----------|
a|---4-4-4-4-4-4-4-4-4-4-4-4-4-4-------|          ----------|
E|-------------------------------------|          ----------|


Chorus:
e|-----2----------------0--------------------------------|
b|-----2----------------------------- 2-----4---------2--|
g|-----3--------------------1--------2-----4---------4---|
d|-----4----------------------------- 2-----4-------3----|  x4
a|-----4---------2--------------0--------2-------4-------|
E|--2--------0-------------------------------------------|

Riff A:
e|------------------------------------------------------------------------------|
b|---3--2--------------------------------------3--2-----------------------------|
g|---5--4--------------------------------------5--4-----------------------------|
d|---4--3--------------------------------------4--3------------------------0-2--|
a|---5--4-------------0-2-3-4-0-2-3-4----------5--4-------------0-2-3-4-------4-|
E|--------------0h4--------------------------------------0h4--------------------|


---------------------------------------------------------------------------|
---3--2--------------------------------------3--2--------------------------|
---5--4--------------------------------------5--4--------------------------|
---4--3--------------------------------------4--3--------------------------|
---5--4-------------0-2-3-4-0-2-3-4----------5--4-----------0-2-3-4--------|
-------------0h4--------------------------------------0h4-------------0----|


Ending:  wah pedal forward on these notes
e|----6/-------6/-------------9---7-------------------|
b|----6/-------6/------------9-------9-8-7--------8/--|
g|----6/-------6/-----------9----------------9-6------|
d|----------------------------------------------------|
a|----------------------------------------------------|
E|----------------------------------------------------|





Comments


Popular Wide Mouth Mason tabs & chords
Corn Rows Tabs
King Of Poison Tabs
Lagavulin Tabs
Rust Tabs
Sister Sally Tabs
Smile Tabs
Spmy Imagination Tabs
Superstition Tabs
This Morning Tabs
Why Tabs


Song lyrics



↑ Back to top | Tablatures and chords are parodies/interpretations of the original songs. You may use it for private study, scholarship, research or language learning purposes only
© 2014 AZChords.com Contact us | Privacy policy | DMCA | Add/correct tabs | Request tabs | Top 50 tabs