» » »

Icky Thump Tabs (ver.1)

Artists:  A B C D E F G H I J K L M N O P Q R S T U V W X Y Z # 

Icky Thump Tabs (ver.1)

White Stripes
Rating:
0/5 (0 votes)

Hard to play? Try these video lessons and learn fast.
                Here is the main jist of the new, awesome White Stripes song. It's easy to play, and 
kick ass. I did this on Guitar Pro, where I have tabbed out all the other parts of the song 
so if anyone wants that, leave a comment here.

The White Stripes - Icky Thump


Verse riff:

E||----------------------|-----------------x-------|
B||----------------------|-----------------x-------|
G||----------------------|-----------------x-7-----|
D||--2----2----2----2----|--2----2----2----x-7--7--|
A||--2----2----2----2----|--2----2----2----x-5--7--|
E||--0----0----0----0----|--0----0----0----x----5--|

Chorus section:

E||-----------------------------|-----------------------------|
B||-----------------------------|-----------------------------|
G||-----------------------------|----------------/7--6--------|
D||------/7-5-4-----------------|------/7-5-4----------7------|
A||-------------5-5--4-----5--5-|--2----------5------------5--|
E||--0-----------------5---3--3-|--0-----------------------3--|


E||-----------------------------|----------------------------|
B||-----------------------------|----------------------------|
G||-----------------------------|----------------7--9--7-9---|
D||------/7-5-4-----------------|------/7-5-4----7--9--7-9---|
A||-------------5-5--4-----5--5-|--2----------5--5--7--5-7---|
E||--0-----------------5---3--3-|--0-------------------------|

x2

After the second chorus:
E||-----------------------------------||
B||-----------------------------------||
G||--7--6---9--8---10--9----12--11----||
D||-------7------9-------10--------12-||
A||-----------------------------------||
E||-----------------------------------||

x4

The rest of the song is just covered by what I have already given. I have a roguh 
of what Jack does with his whammy bar, but I haven't added it in this tab since I'm probably 
(I don't have a whammy bar to test it with).

If you need any help, PM me on the forums.

Tablature Legend
----------------
L - tied note
x - dead note
g - grace note
(n) - ghost note
> - accentuded note
NH - natural harmonic
AH - artificial harmonic
TH - tapped harmonic
SH - semi harmonic
PH - pitch harmonic
h - hammer on
p - pull off
b - bend
br - bendRelease
pb - preBend
pbr - preBendRelease
brb - bendReleaseBend
\n/ - tremolo bar dip
\n - tremolo bar dive
-/n - tremolo bar Release up
/n\ - tremolo bar inverted dip
/n - tremolo bar return
-\n - tremolo bar Release down
S - shift slide
s - legato slide
/ -  slide into from below or out of upwards
\ -  slide into from above or out of downwards
~ - vibrato
W - wide vibrato
tr - trill
TP - tremolo picking
T - tapping
S - slap
P - pop
< - fade in
^ - brush up
v - brush down
            
Hard to play? Try these video lessons and learn fast. | Correct




comments powered by Disqus
↑ Back to top | Tablatures and chords are parodies/interpretations of the original songs. You may use it for private study, scholarship, research or language learning purposes only