>
 >
Hotel Yorba

Hotel Yorba Guitar Tabs

White Stripes - Hotel Yorba chords, tabs, tablatures, lyrics

Guitar lessons | Add/correct | Request | Top 50 tabs Artists:  A B C D E F G H I J K L M N O P Q R S T U V W X Y Z 0-9

Hotel Yorba Guitar Tabs – White Stripes

CD, Sheet music, Poster

Do you like Hotel Yorba? Share with your friends now
Bass TabsBass Tabs v2ChordsDrum TabsTabsTabs v2Tabs v3Tabs v4Ukulele
Tunind: standard (E A D G B e)


Intro:
-|-----------------------------------3---3-3--------------------------------|-
-|---3-------------------------------3---3-3--------------------------------|-
-|---0---0---------------------------0---0-0--------------------------------|-
-|---0---0-----0---------0-----0-0---0---0-0--------------------------------|-
-|---------0h2-------0h2---0h2---2---2---2-2--------------------------------|-
-|-3---------------3-------------3---3---3-3--------------------------------|-

Verse 1 & 2:
-|-----3-------3-------3-------3-------0-------0-------0-------0------------|-
-|-----0-------0-------0-------0-------1-------1-------1-------1------------|-
-|-----0-------0-------0-------0-------0-------0-------0-------0------------|-
-|-----0-------0-------0-------0---2-------2-------2-------2----------------|-
-|-2-------2-------2-------2-------3-------3-------3-------3----------------|-
-|-3-------3-------3-------3------------------------------------------------|-

-|-----2-------2-------2-------2-------3-------3-------3-------3------------|-
-|-----3-------3-------3-------3-------3-------3-------3-------3------------|-
-|-2---2---2---2---2---2---2---2-------0-------0-------0-------0------------|-
-|-0-------0-------0-------0-----------0-------0-------0-------0------------|-
-|---------------------------------2-------2-------2-------2----------------|-
-|---------------------------------3-------3-------3-------3----------------|-

Chorus 1:
-|-----3-------3-------3-------3-------0-------0-------0-------0------------|-
-|-----0-------0-------0-------0-------1-------1-------1-------1------------|-
-|-----0-------0-------0-------0-------0-------0-------0-------0------------|-
-|-----0-------0-------0-------0---2-------2-------2-------2----------------|-
-|-2-------2-------2-------2-------3-------3-------3-------3----------------|-
-|-3-------3-------3-------3------------------------------------------------|-

-|-----2-------2-------2-------2-------3-------1---3---3---3---3------------|-
-|-----3-------3-------3-------3-------3-------1---0---0---0---0------------|-
-|-2---2---2---2---2---2---2---2-------0-------2---0---0---0---0------------|-
-|-0-------0-------0-------0-------0---0---3---3---0---0---0---0------------|-
-|---------------------------------2---2---3---3---2---2---2---2------------|-
-|---------------------------------3---3---1---1---3---3---3---3------------|-

Interlude:
-|-----3-3-----3-3-----3-3-----3-3-----0-0-----0-0-----0-0-----0-0----------|-
-|-----0-0-----0-0-----0-0-----0-0-----1-1-----1-1-----1-1-----1-1----------|-
-|-----0-0-----0-0-----0-0-----0-0-----0-------0-------0-------0------------|-
-|-----0-------0-------0-------0---2-------2-------2-------2----------------|-
-|-2-------2-------2-------2-------3-------3-------3-------3----------------|-
-|-3-------3-------3-------3------------------------------------------------|-

-|-----2-2-----2-2-----2-2-----2-2-----3-3-----3-3-----3-3-----3-3----------|-
-|-----3-3-----3-3-----3-3-----3-3-----3-3-----3-3-----3-3-----3-3----------|-
-|-2---2---2---2---2---2-----2-2-------0-0-----0-0-----0-0-----0-0----------|-
-|-0-------0-------0---------0---------0-------0-------0-------0------------|-
-|---------------------------------2-------2-------2-------2----------------|-
-|---------------------------------3-------3-------3-------3----------------|-

Verse 3 & 4:
-|-----3-3-----3-3-----3-3-----3-3-----0-0-----0-0-----0-0-----0-0----------|-
-|-----0-0-----0-0-----0-0-----0-0-----1-1-----1-1-----1-1-----1-1----------|-
-|-----0-0-----0-0-----0-0-----0-0-----0-------0-------0-------0------------|-
-|-----0-------0-------0-------0---2-------2-------2-------2----------------|-
-|-2-------2-------2-------2-------3-------3-------3-------3----------------|-
-|-3-------3-------3-------3------------------------------------------------|-

-|-----2-2-----2-2-----2-2-----2-2-----3-3-----3-3-----3-3-----3-3----------|-
-|-----3-3-----3-3-----3-3-----3-3-----3-3-----3-3-----3-3-----3-3----------|-
-|-2---2---2---2---2---2-----2-2-------0-0-----0-0-----0-0-----0-0----------|-
-|-0-------0-------0---------0---------0-------0-------0-------0------------|-
-|---------------------------------2-------2-------2-------2----------------|-
-|---------------------------------3-------3-------3-------3----------------|-

Chorus 2: same1

Interlude:
-|-3-------------------------------0----------------------------------------|-
-|-0-------------------------------1----------------------------------------|-
-|-0-------------------------------0----------------------------------------|-
-|-0-------------------------------2----------------------------------------|-
-|-2-------------------------------3----------------------------------------|-
-|-3------------------------------------------------------------------------|-

-|-2-------------------------------3----------------------------------------|-
-|-3-------------------------------3----------------------------------------|-
-|-2-------------------------------0----------------------------------------|-
-|-0-------------------------------0----------------------------------------|-
-|---------------------------------2----------------------------------------|-
-|---------------------------------3----------------------------------------|-

Verse 5:
-|-3-------------------------------0----------------------------------------|-
-|-0-------------------------------1----------------------------------------|-
-|-0-------------------------------0----------------------------------------|-
-|-0-------------------------------2----------------------------------------|-
-|-2-------------------------------3----------------------------------------|-
-|-3------------------------------------------------------------------------|-

-|-2-------------------------------3----------------------------------------|-
-|-3-------------------------------3----------------------------------------|-
-|-2-------------------------------0----------------------------------------|-
-|-0-------------------------------0----------------------------------------|-
-|---------------------------------2----------------------------------------|-
-|---------------------------------3----------------------------------------|-

Verse 6: same 1 & 2

Chorus 3: same 1

Chorus 4: same 1


Tablature Keys:

h - hammer on
p - pull off
b - bend
r - relese bend
~ - sustain
/ - slide up
\ - slide down
v - vibrato
* - trill
x - mute string
pm - palm mute
x\\\ - pick scrape (direction same as slide)





Comments


Popular White Stripes tabs & chords
Cannon Bass Tabs
Fell In Love With A Girl 5 Bass Tabs
In The Cold, Cold, Night Bass Tabs
There's No Home For You Here Bass Tabs
I Smell A Rat Intro Tabs
My Doorbell 1 Tabs
The Nurse Tabs
Well It's True That We Love One Another Tabs
Little Ghost Ukulele
Your Southern Can Is Mine Ukulele


Song lyrics



↑ Back to top | Tablatures and chords are parodies/interpretations of the original songs. You may use it for private study, scholarship, research or language learning purposes only
© 2014 AZChords.com Contact us | Privacy policy | DMCA | Add/correct tabs | Request tabs | Top 50 tabs