» » »

White Stripes, Ball And Biscuit Tabs (ver.1)

Artists:  A B C D E F G H I J K L M N O P Q R S T U V W X Y Z # 

Ball And Biscuit Tabs (ver.1)

White Stripes Tabs
Rating:
4/5 (12 votes)
Ball And Biscuit lessons Tabs too difficult? Try these video lessons and learn fast
                MAIN RIFF

|---------0---0-------|-------------------|-------------------|
|---------0---0-------|--2---2p0-2-0-2-0--|------4p2-4-2-4-2--|
|*-(1)------2----0---*|*-2---2p0-2-0-2-0-*|*-4---4p2-4-2-4-2-*|
|*-(0)-----------0---*|*-2---2p0-2-0-2-0-*|*-4---4p2-4-2-4-2-*|
|---2------------x----|--0-0-0-0-0-0-0-0--|--2-2-2-2-2-2-2-2--|
|---0------------3b---|-------------------|-------------------|

Standard blues form: e/e/a/e/b/a



----0-0-0-----|------------------|---------------------
------3-0-----|----3-p-2---------|---------------------
-----(1)------|-2--2-----2p0-2p0-|---------------------
--------------|-2--------2---2---|----etc.-------------
-2------------|-0----------------|---------------------
-0------------|------------------|---------------------

BASS
|---------------|
|---------------|
|---------------|
|---------------|
|-7---7-5--7----|
|-------------3-|



fills
1                     2         3        4                5
|---------------------|--------|--------|----------------|--3b4-|
|-(0)-----------------|-3b-p-0-|-0-h-1~-|-(0)------------|-x----|
|-/4~4-4\-2-p-0-------|--------|--------|-/4~4-4\-2-p-0--|------|
|---------------2-p-0-|--------|--------|----------------|------|
|---------------------|--------|--------|----------------|------|
|---------------------|--------|--------|----------------|------|





|------0-------0-0----0-0------0------------|
|----0-------------------------0-(0)--------|
|------------3------2------0h1---(1)(1)-----|
|-----------------------------------(0)--0--|
|-2--------------------------------------x--|
|-0--------------------------------------3--|




guitar 1:(behind solo) Emn A B


solo:(not quite right, but hei wat ya gonna do?

|----17b19r17p15-----22-22b24~-|---17b19r17-----22-----|
|----------------17~-----------|------------17---------|
|------------------------------|-----------------------|
|------------------------------|-----------------------|
|------------------------------|-----------------------|
|------------------------------|-----------------------|

|-10-------------------------------|---15-15b17\----15-15b17--17-15----
|-10b12-12-r10p8--b-12-p-10--10-8~-|-5/---------10/-----------------17-
|----------------------------------|-----------------------------------
|----------------------------------|-----------------------------------
|----------------------------------|-----------------------------------

                                            
--15-----|-/15--15-------------------------|
-----17~-|---------18-------------18b------|
---------|------------17-17b18r17-----17b--|
---------|-----------------quick-----------|
---------|---------------------------------|
---------|---------------------------------|

|-28b29r28-24-24-24-24-24-24-22b24~22--------|-------------------------|
|-------------------------------------22b24~-|-28b29r\-28b29-29-29-----|
|--------------------------------------------|--------------------28b--|
|--------------------------------------------|---------------------slow|
|--------------------------------------------|-------------------------|
|--------------------------------------------|-------------------------|

|--------------------------------|-------------------------------------|
|----------19--------------------|-20b22-22-22-22----------------------|
|/19-19-21----21b22~-21-19-21-19~|----------------19b21-19-17----------|
|--------------------------------|----------------------------19-17-14-|
|--------------------------------|-------------------------------------|
|--------------------------------|-------------------------------------|


|----------------------------------|
|----------------------------------|
|----------------------------------|
|----------------------------------|
|----------------------------------|
|-0----4---4-5--5-5-6--6-6--7~-----|



HAVE FUN!!
            
Submit corrections

comments powered by Disqus
↑ Back to top | White Stripes Tabs for Ball And Biscuit. Lyrics for acoustic guitar and electric guitar. Tablatures and chords are parodies/interpretations of the original songs. You may use it for private study, scholarship, research or language learning purposes only