» » »

White Lion, Lady Of The Valley Tabs (ver.1)

Artists:  A B C D E F G H I J K L M N O P Q R S T U V W X Y Z # 

Lady Of The Valley Tabs (ver.1)

White Lion Tabs
 Rating:
4/5 (4 votes)
Lady Of The Valley lessons Tabs too difficult? Try these video lessons and learn fast
1
                -----------------------------------------------------------------------------
-----------------------------------------------------------------------------

Tuning: Standard A 440hz
  Rhy fig 1                                    4X  Rhy Fig 2
   N/C       D5                                      F E D       F E C  C#
e|------------------------------------------------|------------------------|----|
B|------------------------------------------------|------------------------|----|
G|--4-p3-p2--p2---------2-------2-------2---------|------------------------|----|
D|-----------0-x0-x0-x0-0-0-0-0-0-0-0-0-0-0-0-0-0-|--10-9--7-----10-9-5--6-|----|
A|------------------------------------------------|--8--7--5-----8--7-3--4-|----|
E|------------------------------------------------|------------------------|----|
With Rhy fig 2
e|----------------------------------------------------------------------------------|
B|--15------15-----18-17-15-14-H15-14---18-15-----18-15----20(+1)-20-17-h18---------|
G|----14------14------------------------------14--------14--------------------------|
D|-------15-----15------------------------------------------------------------------|
A|----------------------------------------------------------------------------------|
E|----------------------------------------------------------------------------------|
                  end intro lead   D min sus    Dm 2X  Fill 1-----------------------|
e|--------------------------------|--0---0---0---1---|---0---0---0--1---------------|
B|--p17--18-17--18-17-18-20-20----|---3---3---3---3--|----3---3---3---3-------------|
G|--------------------------------|----2---2---2---2-|-----2---2---2---2------------|
D|--------------------------------|-0----------------|--0---------------------------|
A|--------------------------------|------------------|------------------------------|
E|--------------------------------|------------------|------------------------------|
Rhy Fig 3 - with fill 1 first time, with fill 2 all others--------------------------|
e|--------------0-------------1-----3-----5-----3-----------------------------------|
B|----1----3---------1----------1-----1-----1----1-----1----3---1-------------------|
G|-----0----0-----0----0----------2-----2-----2----2-----0---0----0-----------------|
D|-------2----2-----2-----2-3------------------------------2---2----2---------------|
A|--3-------------------------------------------------3---------------3-------------|
E|----------------------------------------------------------------------------------|
Fill 2               Rhy Fig 4--- play twice----------------------------------------|
e|---0----5-----6-5-|---------------------------------------------------------------|
B|----3-----3-------|---------------------------------------------------------------|
G|------2-----2-----|------2-----3----2~---2----3----2~--3-------------5------------|
D|-0----------------|---sl\0-x0--0-x0-0-x0-0-x0-0-x0-0-0-1-1-1-1-1-1-1-3------------|
pm----------------------------------------------------------------------------------|
A|-------------------|--------------------------------------------------------------|
E|-------------------|--------------------------------------------------------------|
Fill 3 w/Rhy Fig 4 1st time|  Chorus
e|------------------|--------------------------------------------------------|
B|------------------|--------------------------------------------------------|
G|-3-p2-p0----------|--------------------------------------------------------|
D|---------3-p2-p0--|--7---5---3--------5------------------------------------|
A|------------------|--5---3---1----3---3------------------------------------|
E|------------------|---------------1----------------------------------------|

| /  slide up
| \  slide down
| h  hammer-on
| p  pull-off
| ~  vibrato
| +  harmonic
| x  Mute note
| +  Bend (steps proceeds) ex - (+1) is bent 1 step up. (+1/2) 1 half step.
            
Submit corrections

comments powered by Disqus
↑ Back to top | White Lion Tabs for Lady Of The Valley. Lyrics for acoustic guitar and electric guitar. 1 Tablatures and chords are parodies/interpretations of the original songs. You may use it for private study, scholarship, research or language learning purposes only