» » »

Wheatus, Teanage Dirtbag Tabs (ver.1)

Artists:  A B C D E F G H I J K L M N O P Q R S T U V W X Y Z # 

Teanage Dirtbag Tabs (ver.1)

Wheatus Tabs
Rating:
0/5 (0 votes)
Teanage Dirtbag lessons Tabs too difficult? Try these video lessons and learn fast
                Tuning: Standard ( E  A  D  G  B  E)

Intro
E|-0---|-0---|-0---|-0----||     
B|-----|-----|-----|------||     
G|-----|-----|-----|------||     
D|-----|-----|-----|------||     
A|-----|--2-2|-----|---0-0||     
E|--0-0|-----|--0-0|------||(x2) 

Verse
E|-0---|-0---|-0---|-0----||     E|-0---|-0---|-0---|-0----||
B|-----|-----|-----|------||     B|-----|-----|-----|------||
G|-----|-----|-----|------||     G|-----|-----|-----|------||
D|-----|-----|-----|------||     D|-----|-----|-----|------||
A|-----|--2-2|-----|---0-0||     A|--4-4|--0-0|--2-2|---2-2||
E|--0-0|-----|--0-0|------||(x3) E|-----|-----|-----|------||(x2) 

Chorus
E|-----------------------||     E|---------------------------------||
B|-----------------------||     B|---------------------------------||
G|------2-2--4-4---------||     G|------2-2--4-4-------------------||
D|-2-2--2-2--4-4----6----||     D|-2-2--2-2--4-4-----6--------2---4||
A|-2-2--0-0--2-2--4-----6||     A|-2-2--0-0--2-2---4-----6--0---2--||
E|-0-0----------------4--||(x3) E|-0-0-----------------4-----------||(x1)

Bridge
E|-------0--------0--------0--------------------||
B|-------0--------0--------0--------------------||
G|-------2--------2--------2--------------------||
D|-2-2-2-2--2-2-2-2--2-2-2-2----6--------2---4--||
A|-0-0-0-0--0-0-0-0--0-0-0-0--4-----6--0---2----||
E|-0-0-0----0-0-0----0-0-0--------4-------------||(x2)

Breakdown 
E|---------------------------------||     E|-------------------------------------------||
B|---------------------------------||     B|-------------------------------------------||
G|---------------------------------||     G|-------------------------------------------||
D|---------2-2-2-2-4-4-4-4----6----||     D|---------2-2-2-2-4-4-4-4-----6--------2---4||
A|-2-2-2-2-0-0-0-0-2-2-2-2--4-----6||     A|-2-2-2-2-0-0-0-0-2-2-2-2---4-----6--0---2--||
E|-0-0-0-0----------------------4--||(x3) E|-0-0-0-0-----------------------4-----------||(x1)
(gradually getting louder)

Outro
E|--------------------------------------------------||
B|--------------------------------------------------||
G|------4-4-------2-2-------4-4---------------------||
D|-2-2--4-4--2-2--2-2--2-2--4-4--2-2--7-6-4\6/4--2--||
A|-2-2--2-2--2-2--0-0--2-2--2-2--2-2--7-6-4\6/4--2--||
E|-0-0-------0-0-------0-0-------0-0--5-4-2\4/2--0--||(x1)

Playing Order:
Intro-> Verse-> Chorus-> Verse-> Chorus-> Bridge-> Verse-> Breakdown-> Bridge-> Outro.
            
Submit corrections

comments powered by Disqus
↑ Back to top | Wheatus Tabs for Teanage Dirtbag. Lyrics for acoustic guitar and electric guitar. Tablatures and chords are parodies/interpretations of the original songs. You may use it for private study, scholarship, research or language learning purposes only