>
 >
Humpem Dumpem

Humpem Dumpem Guitar Tabs

Wheatus - Humpem Dumpem chords, tabs, tablatures, lyrics

Guitar lessons | Add/correct | Request | Top 50 tabs Artists:  A B C D E F G H I J K L M N O P Q R S T U V W X Y Z 0-9

Humpem Dumpem Guitar Tabs – Wheatus

CD, Sheet music, Poster

Do you like Humpem Dumpem? Share with your friends now
Tabs
HUMP'EM DUMP'EM - Wheatus

I haven't seen this tab yet so I decide me to write it.
It's not very organized but i'm too lazy =) But I tabbed the whole song anyway.
Maybe it's not 100% correct but it sound cool.
Standart tuning

s:slide

Intro: G 
e|---3--3--33--|
B|---3--3--33--|
G|---0--0--00--|
D|------2--22--|
A|--2-2-3--33--|
E|--3-3--------|

Play this few of times 

Then:
e|------3---------3--|
B|------3---------3--|
G|-------------------|
D|-------------------|
A|-------------------|
E|--3-3---------3----|
A lot of times

e|------3---3--|
B|------3---3--|
G|-------------|(i think it's x4)
D|-------------|
A|-------------|
E|--0-0--0-----|

e|-------------------------|
B|-------------------------|
G|-------------------------|(x4)
D|-----5-2--------5-2------|
A|---------0-2-33-----0-2--|
E|--33---------------------|

e|------------------------|
B|------------------------|
G|--777777----------------|
D|--777777-2-0------------|
A|--555555-----3-2-0------|
E|-------------------3-2--|

e|---3--3--333--|
B|---3--3--333--|
G|---0--0--000--|
D|------2--222--|
A|--2-2-3--333--|
E|--3-3---------|

e|------3---------3--|
B|------3---------3--|
G|-------------------|
D|-------------------|
A|-------------------|
E|--3-3---------3----|

e|-------------------|
B|-------------------|
G|-------------------|
D|------2-3-5-3-2-3--|
A|--3-5--------------|
E|-------------------|

A lot of times

e|------3---3--|
B|------3---3--|
G|-------------|(i think it's x4)
D|-------------|
A|-------------|
E|--0-0--0-----|

e|-------------------------|
B|-------------------------|
G|-------------------------|(x4)
D|-----5-2--------5-2------|
A|---------0-2-33-----0-2--|
E|--33---------------------|

e|------------------------|
B|------------------------|
G|--777777----------------|
D|--777777-2-0------------|
A|--555555-----3-2-0------|
E|-------------------3-2--|

e|---3--3--3-333--|
B|---3--3--3-333--|(x2)
G|---0--0--0-000--|
D|------2--2-000--|
A|--2-2-3--3-222--|
E|--3-3------333--|

e|-----------------|
B|--0-1-0-3-0-2----|
G|--0-2-0-2-0-2-0--|
D|-----------------|
A|-----------------|
E|-----------------|

e|---3--3--3-333--|
B|---3--3--3-333--|
G|---0--0--0-000--|
D|------2--2-000--|
A|--2-2-3--3-222--|
E|--3-3------333--|

e|---7---|
B|---8---| Let Ring...
G|---7---|
D|-------|
A|-------|
E|-------|

Bridge:
e|-----7----7-----|
B|---8----8----8--|
G|--7-7--7-7--7---|
D|----------------|
A|----------------|
E|----------------|

Let's go !

E|--12s3--|

e|-----3-----3------3-----3----|
B|-----3-----3------3-----3----|(x6 I think)
G|-----0------------0----------|
D|-------2-2----------2-2------|
A|-----------0-2-3-3------0-2--|
E|--3-3------------------------|

e|------3-------3-----3-------3--|
B|------3-------3-----3-------3--|(x4)
G|-------------------------------|
D|-------------------------------|
A|----------------3-3---3-3-3----|
E|--3-3---3-3-3------------------|

e|----------------------|
B|----------------------|(x4)
G|------------55555555--|
D|--55555555--55555555--|
A|--55555555--33333333--|
E|--33333333------------|

e|-------------------------|
B|-------------------------|
G|-------------------------|(x4)
D|-----5-2--------5-2------|
A|---------0-2-33-----0-2--|
E|--33---------------------|

e|------------------------|
B|------------------------|
G|--777777----------------|
D|--777777-2-0------------|
A|--555555-----3-2-0------|
E|-------------------3-2--|





Comments


Popular Wheatus tabs & chords
A Little Respect 2 Chords
American In Amsterdam Chords
Teenage Dirtbag 2 Chords
Teenage Dirtbag 5 Chords
Bmx Bandits Tabs
Deck Tabs
Leroy  1 Tabs
Mr Brown Tabs
Punk Ass Bitch Tabs
Teenage Dirtbag 4 Tabs


Song lyrics



↑ Back to top | Tablatures and chords are parodies/interpretations of the original songs. You may use it for private study, scholarship, research or language learning purposes only
© 2014 AZChords.com Contact us | Privacy policy | DMCA | Add/correct tabs | Request tabs | Top 50 tabs