» » »

Not So Metal Bass tabs (ver.1)

Artists:  A B C D E F G H I J K L M N O P Q R S T U V W X Y Z # 

Not So Metal Bass tabs (ver.1)

Whatever It Takes
Rating:
0/5 (0 votes)

Hard to play? Try these video lessons and learn fast.
                - Whatever It Takes - Not So Metal
- Cool song to play. Just follow the tab and you`ll get this right.


_______________________
Intro
G|-------------------------------------|----|
D|-------------------------------------|----|
A|-44444444-44444444-11111111----------|-4x-|
E|----------------------------44444444-|----|

Verse I
G|---------------------------------------|----|
D|---3-3-3h4--3-3-3h4---3-3-3----3-3-4p3-|----|
A|-44-4-4----4-4-4----11-1-1-1-----------|-3x-|
E|-----------------------------44-4-4----|----|

G|--------------------------------|----|
D|---3-3-3h4--3-3-3h4---3-3-3-----|----|
A|-44-4-4----4-4-4----11-1-1-1----|-1x-|
E|-----------------------------4--|----|

Chorus I
G|-----------------------------------|----|
D|---------3-334-44------------------|----|
A|-44444444--------------------------|-1x-|
E|------------------2222222222222222-|----|

G|------------------------------------|----|
D|------------------------------33-11-|----|
A|-11111111--------------------1------|-1x-|
E|----------44444444-22222222-----4---|----|

G|-----------------------------------|----|
D|---------3-334-44------------------|----|
A|-44444444--------------------------|-1x-|
E|------------------2222222222222222-|----|

G|----------------------------|----|
D|----------------------------|----|
A|-11111111-------------------|-1x-|
E|----------44444444-22222222-|----|

Bridge I
G|---------------------------------------|----|
D|---3-3-3h4--3-3-3h4---3-3-3----3-3-4p3-|----|
A|-44-4-4----4-4-4----11-1-1-1-----------|-2x-|
E|-----------------------------44-4-4----|----|

Verse II
G|---------------------------------------|----|
D|---3-3-3h4--3-3-3h4---3-3-3----3-3-4p3-|----|
A|-44-4-4----4-4-4----11-1-1-1-----------|-1x-|
E|-----------------------------44-4-4----|----|

G|--------------------------------|----|
D|---3-3-3h4--3-3-3h4---3-3-3-----|----|
A|-44-4-4----4-4-4----11-1-1-1----|-1x-|
E|-----------------------------4--|----|

Chorus II
G|-----------------------------------|----|
D|---------3-334-44------------------|----|
A|-44444444--------------------------|-1x-|
E|------------------2222222222222222-|----|

G|------------------------------------|----|
D|------------------------------33-11-|----|
A|-11111111--------------------1------|-1x-|
E|----------44444444-22222222-----4---|----|

G|-----------------------------------|----|
D|---------3-334-44------------------|----|
A|-44444444--------------------------|-1x-|
E|------------------2222222222222222-|----|

G|-------------------------------------|----|
D|-------------------------------------|----|
A|-11111111----------------------------|-1x-|
E|----------44444444-22222222-22222222-|----|

Bridge II
G|-------------------------------------|----|
D|-------------------------------------|----|
A|-11111111----------------------------|-1x-|
E|----------44444444-22222222-22222222-|----|

G|------------|----|
D|------------|----|
A|-6~---------|-1x-|
E|-----2~--4~-|----|

G|---|----|
D|---|----|
A|-4-|-1x-|
E|---|----|

No Bass [01:59 – 02:09]

Bridge III
G|-----------------------------------|----|
D|-----------------------------------|----|
A|-44----11--------------------------|-1x-|
E|-------------44---2222222222222222-|----|

G|--------------------------------------|----|
D|--------------------------------------|----|
A|-44-44--11-11-------------------------|-1x-|
E|---------------44-44-2222222222222222-|----|


G|---------------------------------------------------------------------|----|
D|---------3-334-44---------4-443-33---------1-113-33------------------|----|
A|-44444444---------11111111-------------------------------------------|-3x-|
E|-----------------------------------44444444---------2222222222222222-|----|

G|------|----|
D|------|----|
A|-4~~~-|-1x-|
E|------|----|

Ending – Only Guitar
            
Hard to play? Try these video lessons and learn fast. | Correct




comments powered by Disqus
↑ Back to top | Tablatures and chords are parodies/interpretations of the original songs. You may use it for private study, scholarship, research or language learning purposes only