» » »

Whatever It Takes, Not So Metal Tabs (ver.1)

Artists:  A B C D E F G H I J K L M N O P Q R S T U V W X Y Z # 

Not So Metal Tabs (ver.1)

Whatever It Takes Tabs
Rating:
0/5 (0 votes)
Not So Metal lessons Tabs too difficult? Try these video lessons and learn fast
                - Whatever It Takes - Not So Metal
- Really cool song to play on electric guitar. It worth it. Hope you enjoy it.

__________

INTRO [4x]
Guitar I 
e|-------------------------------------------------|
B|-------------------------------------------------|
G|--------------------33-3-3-3-3-------------------|
D|---3-3-3h4--3-3-3h4-33-3-3-3-3-3h4-66-6-6-6-66-6-|
A|-44-4-4----4-4-4----11-1-1-1-1-1---66-6-6-6-66-6-|
E|-----------------------------------44-4-4-4-44-4-|
   ** * *    * * *    **   *   *     **   *   **  

Guitar II
e|-----------------------------------------------|
B|-----------------------------------------------|
G|-6-66666-11-1111-10-1010--3-33333-13-1313-1110-|
D|-x-xxxxx--x--x-x--x--x-x--x-xxxxx--x--x-x--x-x-|
A|-4-44444--9--9-9--8--8-8--1-11111-11-1111--9-8-|
E|-----------------------------------------------|

VERSE
Guitar I 
e|-------------------------------------------------|
B|-------------------------------------------------|
G|--------------------33-3-3-3-3-------------------|
D|---3-3-3h4--3-3-3h4-33-3-3-3-3-3h4-66-6-6-6-66-6-|
A|-44-4-4----4-4-4----11-1-1-1-1-1---66-6-6-6-66-6-|
E|-----------------------------------44-4-4-4-44-4-|
   ** * *    * * *    **   *   *     **   *   **  

Guitar II
e|-------------------------------------------------|
B|-------------------------------------------------|
G|-6~-----------------6/10~----------11-10-8-------|
D|-x------------------x/-x------------x--x-x-------|
A|-4~-----------------4/-8~-----------9--8-6-------|
E|-------------------------------------------------|

Guitar I
e|-------------------------------------------------|
B|-------------------------------------------------|
G|--------------------33-3-3-3-3-------------------|
D|---3-3-3h4--3-3-3h4-33-3-3-3-3-3h4-66-6-6-6-66-6-|
A|-44-4-4----4-4-4----11-1-1-1-1-1---66-6-6-6-66-6-|
E|-----------------------------------44-4-4-4-44-4-|
   ** * *    * * *    **   *   *     **   *   **  

Guitar II
e|-------------------------------------------------|
B|-------------------------------------------------|
G|-6~-----------------6\3~-----------13-12-10------|
D|-x------------------x\x-------------x--x--x------|
A|-4~-----------------4\1~-----------11-10--8------|
E|-------------------------------------------------|

Guitar I
e|-------------------------------------------------|
B|-------------------------------------------------|
G|--------------------33-3-3-3-3-------------------|
D|---3-3-3h4--3-3-3h4-33-3-3-3-3-3h4-66-6-6-6-66-6-|
A|-44-4-4----4-4-4----11-1-1-1-1-1---66-6-6-6-66-6-|
E|-----------------------------------44-4-4-4-44-4-|
   ** * *    * * *    **   *   *     **   *   **  

Guitar II
e|--------------------------------------------------------|
B|--------------------------------------------------------|
G|-66-6-66-6-66-6-66-6-1010-10-1010-10-1111-11-1111-11\10-|
D|-xx-x-xx-x-xx-x-xx-x--x-x--x--x-x--x--x-x--x--x-x--x-x--|
A|-44-4-44-4-44-4-44-4--8-8--8--8-8--8--9-9--9--9-9--9-8--|
E|--------------------------------------------------------|
   **   **   **   **    * *     * *     * *     * *

Guitar I
e|------------------------------|
B|------------------------------|
G|--------------------33-333333-|
D|---3-3-3h4--3-3-3h4-33-333333-|
A|-44-4-4----4-4-4----11-111111-|
E|------------------------------|
   ** * *    * * *    **     

Guitar II
e|----------------------------------------------------|
B|----------------------------------------------------|
G|-66-6-66-6-66-6-66-6-33-3-33-3----12-11-9-8-9-8-6-5-|
D|-xx-x-xx-x-xx-x-xx-x-xx-x-xx-x-----x--x-x-x-x-x-x-x-|
A|-44-4-44-4-44-4-44-4-11-1-11-1----10--9-7-6-7-6-4-3-|
E|----------------------------------------------------|
   **   **   **   **   **   **  

CHORUS
Guitar I
e|--------------------------------------|
B|--------------------------------------|
G|-66666666----------3333---------------|
D|-66666666-44444444-3333-6666-44444444-|
A|-44444444-44444444-1111-6666-44444444-|
E|----------22222222------4444-22222222-|

Guitar II
e|-------------------------------------|
B|-------------------------------------|
G|-66666666-66666666-3-5-6-8-6-5-6-6-6-|
D|-xxxxxxxx-xxxxxxxx-x-x-x-x-x-x-x-x-x-|
A|-44444444-44444444-1-3-4-6-4-3-4-4-4-|
E|-------------------------------------|

Guitar I
e|--------------------------------------|
B|--------------------------------------|
G|-66666666----------3333---------------|
D|-66666666-44444444-3333-6666-44444444-|
A|-44444444-44444444-1111-6666-44444444-|
E|----------22222222------4444-22222222-|

Guitar II
e|--------------------------------------------------------|
B|--------------------------------------------------------|
G|-66666666-66666666-3-5-6-8-6-5-6-5-6--12-11-9-8-9-8-6-5-|
D|-xxxxxxxx-xxxxxxxx-x-x-x-x-x-x-x-x-x---x—x--x-x-x-x-x-x-|
A|-44444444-44444444-1-3-4-6-4-3-4-3-4--10--9-7-6-7-6-4-3-|
E|--------------------------------------------------------|

REPEAT VERSE

CHORUS
Guitar I
e|--------------------------------------|
B|--------------------------------------|
G|-66666666----------3333---------------|
D|-66666666-44444444-3333-6666-44444444-|
A|-44444444-44444444-1111-6666-44444444-|
E|----------22222222------4444-22222222-|

Guitar II
e|-------------------------------------|
B|-------------------------------------|
G|-66666666-66666666-3-5-6-8-6-5-6-6-6-|
D|-xxxxxxxx-xxxxxxxx-x-x-x-x-x-x-x-x-x-|
A|-44444444-44444444-1-3-4-6-4-3-4-4-4-|
E|-------------------------------------|

Guitar I
e|--------------------------------------|
B|--------------------------------------|
G|-66666666----------3333---------------|
D|-66666666-44444444-3333-6666-44444444-|
A|-44444444-44444444-1111-6666-44444444-|
E|----------22222222------4444-22222222-|

Guitar II
e|----------------------------------------------------|
B|----------------------------------------------------|
G|-66666666-66666666-3-5-6-8-6-5-6-5-6-11-10-8-10-8-6-|
D|-xxxxxxxx-xxxxxxxx-x-x-x-x-x-x-x-x-x--x—-x-x--x-x-x-|
A|-44444444-44444444-1-3-4-6-4-3-4-3-4--9--8-6—-8-6-4-|
E|----------------------------------------------------|

AFTER 2nd CHORUS
Guitar I
e|---------------------------------------------------------------------|
B|---------------------------------------------------------------------|
G|-3333-------------------------------8~-888---------------------------|
D|-3333--6666--44444444---------------8~-888--------------------4~-6~--|
A|-1111--6666--44444444---------------6~-666--------------------4~-6~--|
E|-------4444--22222222-----------------------------------------2~-4~--|
                                         ***
Guitar II
e|-------------------------------------------------------------------------------------|
B|-------------------------------------------------------------------------------------|
G|-3-5-6-8-6-5-6-5-6-11-10-8-13-11-10-8~-8/10-10/11-11\10-10/11-11~-11\10-8-6-10-8-6-5-|
D|-x-x-x-x-x-x-x-x-x--x--x-x—-x--x--x-x--x/-x--x/-x--x\-x--x/-x—x----x\-x-x-x--x-x-x-x-|
A|-1-3-4-6-4-3-4-3-4--9--8-6-11--9--8—6~-6/-8--8/-9--9\-8--8/-9--9~--9\-8-6-4--8-6-4-3-|
E|-------------------------------------------------------------------------------------|

BRIDGE
Guitar I
e|------------------------------------------------------------------------|
B|------------------------------------------------------------------------|
G|---6---6---6---6-----6---6---6---6-----6---6---6---6-----6---6---6---6--|
D|------------------------------------------------------------------------|
A|-44-4-4-4-4-4-4-4-------------------------------------------------------|
E|-------------------66-6-6-6-6-6-6-6--44-4-4-4-4-4-4-4--22-2-2-2-2-2-2-2-|

Guitar II
e|---------------|
B|---------------|
G|---------------|
D|---------------|
A|-No-2nd-Guitar-|
E|---------------|

Guitar I
e|------------------------------------------------------------------------|
B|------------------------------------------------------------------------|
G|---6---6---6---6-----6---6---6---6-----6---6---6---6-----6---6---6---6--|
D|------------------------------------------------------------------------|
A|-44-4-4-4-4-4-4-4-------------------------------------------------------|
E|-------------------66-6-6-6-6-6-6-6--44-4-4-4-4-4-4-4--22-2-2-2-2-2-2-2-|

Guitar II
e|------------------------------------------------------------------------|
B|------------------------------------------------------------------------|
G|-6666666666666666-------------------------------------------------------|
D|-6666666666666666--8888888888888888--6666666666666666--4444444444444444-|
A|-4444444444444444--8888888888888888--6666666666666666--4444444444444444-|
E|-------------------6666666666666666--4444444444444444--2222222222222222-|

Guitar I
e|------------------------------------------------------------------------|
B|------------------------------------------------------------------------|
G|---6---6---6---6-----6---6---6---6-----6---6---6---6-----6---6---6---6--|
D|------------------------------------------------------------------------|
A|-44-4-4-4-4-4-4-4-------------------------------------------------------|
E|-------------------66-6-6-6-6-6-6-6--44-4-4-4-4-4-4-4--22-2-2-2-2-2-2-2-|

Guitar II
e|-------------------------------------------------------------------------------------|
B|-------------------------------------------------------------------------------------|
G|-66-66-11/12-11~--------11\10-11\10-------13\11-13\11\10-xx10-xx10-13\11-13\11\10-11-|
D|-66-66--x/-x--x---88-88--x\-x--x\-x-66-66--x\-x--x\-x\-x-xx-x-xx-x--x\-x--x\-x\-x--x-|
A|-44-44--9/10--9~--88-88--9\-8--9\-8-66-66-11\-9-11\-9\-8-xx-9-xx-9-11\-9-11\-9\-8--9-|
E|------------------66-66-------------44-44--------------------------------------------|


ENDING PART
Guitar I [3x]
e|------------------------------------------------------------------------|
B|------------------------------------------------------------------------|
G|---6---6---6---6-----6---6---6---6-----6---6---6---6-----6---6---6---6--|
D|------------------------------------------------------------------------|
A|-44-4-4-4-4-4-4-4-------------------------------------------------------|
E|-------------------66-6-6-6-6-6-6-6--44-4-4-4-4-4-4-4--22-2-2-2-2-2-2-2-|

Guitar II [3x]
e|---------------------------------------------------------------------------------|
B|---------------------------------------------------------------------------------|
G|-6-66666-11-1111-10-1010---------11-1111-10-1010--13-1313131313-13-1313131313\11-|
D|-6-66666--x--x-x--x--x-x-8-88888--x--x-x--x--x-x---x--x-x-x-x-x--x--x-x-x-x-x--x-|
A|-4-44444--9--9-9--8--8-8-8-88888--9--9-9--8--8-8--11-1111111111-11-1111111111\-9-|
E|-------------------------6-66666-------------------------------------------------|

Guitar II Continuation of above riff
e|----------------------------------------|
B|----------------------------------------|
G|-xx10/11/13-xx11\10--xx10/11/13-xx11\10-|
D|-xx-x/-x/-x-xx-x\-x--xx-x/-x/-x-xx-x\-x-|
A|-xx-8/-9/11-xx-9\-8--xx-8/-9/11-xx-9\-8-|
E|----------------------------------------|

Guitar I [1x]
e|-----------------|
B|-----------------|
G|-----------------|
D|-----------------|
A|-No First-Guitar-|
E|-----------------|

Guitar II [1x]
e|-------------------------------------------------------------------------------------|
B|-------------------------------------------------------------------------------------|
G|-6-66666-11-1111-10-1010--6-66666-13-1313-11-10--6-66666-6/8-88-8/10-1010-6-6666-55-6|
D|-x-xxxxx--x--x-x--x--x-x--x-xxxxx--x--x-x--x--x--x-xxxxx-x/x-xx-x/-x--x-x-x-xxxx-xx-x|
A|-4-44444--9--9-9--8--8-8--4-44444-11-1111--9--8--4-44444-4/6-66-6/-8--8-8-4-4444-33-4|
E|-------------------------------------------------------------------------------------|
            

comments powered by Disqus
↑ Back to top | Whatever It Takes Tabs for Not So Metal. Lyrics for acoustic guitar and electric guitar. Tablatures and chords are parodies/interpretations of the original songs. You may use it for private study, scholarship, research or language learning purposes only