» » »

Wake Me Up Before You Go-go Bass tabs (ver.1)

Artists:  A B C D E F G H I J K L M N O P Q R S T U V W X Y Z # 

Wake Me Up Before You Go-go Bass tabs (ver.1)

Wham
Rating:
2/5 (4 votes)

Hard to play? Try these video lessons and learn fast.
                READ THIS!!
This isent the exact bassline. this is only supposed to give you a rough idea of the song.


Wham! - Wake Me Up Before You Go-Go

Intro 4x
G--------------|
D-5-0-5--------|
A----------3-3-|
E--------------|


Verse 2x
G---------5---------------------7-9/|
D------------5-75---------7-9-------|
A--33--------------555--------------|
E-----------------------------------|

Pre Chorus
G--------------------------------5----------------|
D-33---7-4-------33------5-----33---7-33-5553/55/-|
A------------7-5----------------------------------|
E---------------------------------------5---------|


Chorus
G----------------------------------------------------|
D----------------------------------------------------|
A-33-----33----33----33------------------------------|
E----3-------33-----3-----33---55-0-55-00-55-0-55-00-|

G------------------------------------------------|
D-------------------------------------------2345-|
A-33-----33----33----33--------------------------|
E----3-------33-----3-----33---55-0-55-00--------|

G----------------------------------------------------|
D----------------------------------------------------|
A-33-----33----33----33------------------------------|
E----3-------33-----3-----33---55-0-55-00-55-0-55-00-|

G-----------------------------------5-0/-17-16-14-12-10-9-7-5-3~-----0245-|
D------------------------------3-5--------------------------------023-----|
A-33-----33----33----33------------------------------------------3--------|
E----3-------33-----3-----33----------------------------------------------|

Verse 2x
G---------5---------------------7-9/|
D------------5-75---------7-9-------|
A--33--------------555--------------|
E-----------------------------------|

Pre Chorus
G--------------------------------5----------------|
D-33---7-4-------33------5-----33---7-33-5553/55/-|
A------------7-5----------------------------------|
E---------------------------------------5---------|


Chorus
G----------------------------------------------------|
D----------------------------------------------------|
A-33-----33----33----33------------------------------|
E----3-------33-----3-----33---55-0-55-00-55-0-55-00-|

G-------------------------------------------------|
D-------------------------------------------2345--|
A-33-----33----33----33---------------------------|
E----3-------33-----3-----33---55-0-55-00---------|

G----------------------------------------------------|
D----------------------------------------------------|
A-33-----33----33----33------------------------------|
E----3-------33-----3-----33---55-0-55-00-55-0-55-00-|

G----------------------------------------5-0/-12-10------12-------|
D----------------------------------3-5---------------12------12~--|
A-33-----33----33----33-------------------------------------------|
E----3-------33-----3-----33--------------------------------------|

G----02457-9-10-12-14-16-17-|
D-023-----------------------|
A---------------------------|
E---------------------------|

Solo 2x
G---------5---------------------795|
D------------5-75---------7-9------|
A--33--------------555-------------|
E----------------------------------|

Rest

Chorus for rest of song
G----------------------------------------------------|
D----------------------------------------------------|
A-33-----33----33----33------------------------------|
E----3-------33-----3-----33---55-0-55-00-55-0-55-00-|

G------------------------------------------------|
D------------------------------------------2345--|
A-33-----33----33----33--------------------------|
E----3-------33-----3-----33---55-0-55-00--------|
            
Hard to play? Try these video lessons and learn fast. | Correct




comments powered by Disqus
↑ Back to top | Tablatures and chords are parodies/interpretations of the original songs. You may use it for private study, scholarship, research or language learning purposes only