» » »

Freedom Bass tabs (ver.1)

Artists:  A B C D E F G H I J K L M N O P Q R S T U V W X Y Z # 

Freedom Bass tabs (ver.1)

Wham
Rating:
0/5 (0 votes)

Hard to play? Try these video lessons and learn fast.
                
Bassist - Deon Estus (look into him hes great.)
Song - Freedom

If im wrong on any part correct me! Instead of telling me im wrong show me please!

Special thanks to jack.sonic for helping me with where to start! thanks man!

Wham! - Freedom

Intro
G-------------|
D---2-3-------| 4x
A-3----------2|
E-------1-3-5-|

Verse 2x
G--------------|
D-3-3---1---1--|
A-----3---3---3| 2x
E--------------|

G--------------|
D--------------|
A-3-3---2---2--| 2x
E-----3---3---3|

G--------------|
D-3-3---1---1--|
A-----3---3---3| 2x
E--------------|

G------------|
D---------23-|
A-3-22-00----|
E------------|

Pre Chorus

G---------------------------|
D---------------------23----|
A-------------33-22-00------| 2x
E-11-11-33-33---------------|

And you doo
G------------|
D------------|
A------------|
E-11-11-33-33|

I dont need your freedom ect.

G-------------------|
D------2-3---3-2----|
A-3-33--------------|
E----------1--------|

G-------------------|
D------2-3---3-2----|
A-5~~---------------|
E----------1--------|

G-------------------|
D------2-3---3-2----|
A-3-33--------------|
E----------1--------|

G-------------------|
D------2-3---3-2----|
A-5~~---------------|
E----------1--------|

G-------------------|
D------2-3---3~-----|
A-3-33--------------|
E----------1--------|

G----------|
D-------5--|
A-5-7-8----|
E----------|

Stop!
Girl all I want is you!

G-------------|
D---2-3-------| 4x
A-3----------2|
E-------1-3-5-|

Verse 2x
G--------------|
D-3-3---1---1--|
A-----3---3---3| 2x
E--------------|

G--------------|
D--------------|
A-3-3---2---2--| 2x
E-----3---3---3|

G--------------|
D-3-3---1---1--|
A-----3---3---3| 2x
E--------------|

G------------|
D---------23-|
A-3-22-00----|
E------------|

Pre Chorus

G---------------------------|
D---------------------23----|
A-------------33-22-00------| 2x
E-11-11-33-33---------------|

And you doo
G------------|
D------------|
A------------|
E-11-11-33-33|

I dont need your freedom ect.

G-------------------|
D------2-3---3-2----|
A-3-33--------------|
E----------1--------|

G-------------------|
D------2-3---3-2----|
A-5~~---------------|
E----------1--------|

G-------------------|
D------2-3---3-2----|
A-3-33--------------|
E----------1--------|

G-------------------|
D------2-3---3-2----|
A-5~~---------------|
E----------1--------|

G-------------------|
D------2-3---3~-----|
A-3-33--------------|
E----------1--------|

G----------|
D-------5--|
A-5-7-8----|
E----------|

Stop!
Girl all I want is you!

G-------------|
D---2-3-------| 4x
A-3----------2|
E-------1-3-5-|

Solo 2x
G--------------|
D-3-3---1---1--|
A-----3---3---3| 2x
E--------------|

G--------------|
D--------------|
A-3-3---2---2--| 2x
E-----3---3---3|

G--------------|
D-3-3---1---1--|
A-----3---3---3| 2x
E--------------|

G------------|
D---------23-|
A-3-22-00----|
E------------|

Pre Chorus

G------------------------|
D---------------------23-|
A-------------33-22-00---| 2x
E-11-11-33-33------------|

And you doo
G------------|
D------------|
A------------|
E-11-11-33-33|

I dont need your freedom ect. (This till end)

G-------------------|
D------2-3---3-2----|
A-3-33--------------|
E----------1--------|

G-------------------|
D------2-3---3-2----|
A-5~~---------------|
E----------1--------|
            
Hard to play? Try these video lessons and learn fast. | Correct




comments powered by Disqus
↑ Back to top | Tablatures and chords are parodies/interpretations of the original songs. You may use it for private study, scholarship, research or language learning purposes only