» » »

Stay Young Bass tabs (ver.1)

Artists:  A B C D E F G H I J K L M N O P Q R S T U V W X Y Z # 

Stay Young Bass tabs (ver.1)

We The Kings
Rating:
0/5 (0 votes)
Tabs too difficult? Try these video lessons and learn fast.
                -------------------------------------------------------------------------------
			     Stay Young - We The Kings
-------------------------------------------------------------------------------


Tuning: Drop D (DADG)

The bridge was pretty hard to tab, so it might not be 100% accurate,
but I'm sure the rest is 


Intro x1

G|------------------------------|
D|------------------------------|
A|3333------------3333--1--11~--|
D|-------1111-6666--------------|


Verse x2  Palm mute

G|---------------------------------------------------------------|
D|---------------------------------------------------------------|
A|33333-3-33333-3------------------------------------------------|
D|---------------66666-6-66666-6-11111-1-11111-1-66666-6-66666-6-|


Pre-Chorus x1

G|---------|
D|---------|
A|---------|
D|6~----8~-|


Chorus x1

G|----------------------------------------------------------------------|
D|----------------------------------------------------------------------|
A|----------------------------------------------------------------------|
D|11111111-88888888-33333333-66666666-66-66-6-88888888-66-66-6-11111111-|

Verse x2
Pre-Chorus x1

Chorus (The 2nd time play this)

G|------------------------------------------------------------------------------|
D|------------------------------------------------------------------------------|
A|------------------------------------------------------------------------------|
D|11111111-88888888-33333333-66666666-66-66-6-88888888-66-66-6-1111111111111111-|


Bridge x1

G|------------------------------------------------------------------|
D|------------------------------------------------------------------|
A|33-33-3-22-22-2-11-11-1-------------------------------------------|
D|------------------------66-666-6666666666666666-888888888888-8--8-|
                                 ................ ............

Guitar solo x2

G|------------------------------------|
D|------------------------------------|
A|------------------------------------|
D|11111111-88888888-33333333-66666666-|


Interlude

G|-------|
D|-------|
A|-------|  x4
D|66--66-|

G|---------|
D|---------|
A|---------|
D|66666666-|


Outro chorus

G|----------------------------------------------------------------------|
D|----------------------------------------------------------------------|
A|----------------------------------------------------------------------|
D|11111111-88888888-33333333-66666666-66-66-6-88888888-66-66-6-11111111-|

G|--------------------------------------------------------------------|
D|--------------------------------------------------------------------|
A|--------------------------------------------------------------------|
D|11111111-88888888-33333333-66666666-66-66-6-88888888-11-11--11-11-1-|



| /  slide up
| \  slide down
| h  hammer-on
| p  pull-off
| ~  vibrato
| +  harmonic
| x  Mute note
===============================================================================
            
Tabs too difficult? Try these video lessons and learn fast.


comments powered by Disqus
↑ Back to top | Tablatures and chords are parodies/interpretations of the original songs. You may use it for private study, scholarship, research or language learning purposes only