» » »

Friendship Is A Touchy Subject Bass tabs (ver.1)

Artists:  A B C D E F G H I J K L M N O P Q R S T U V W X Y Z # 

Friendship Is A Touchy Subject Bass tabs (ver.1)

We The Kings
Rating:
0/5 (0 votes)

Tabs too difficult? Try these video lessons and learn fast.
                            Friendship Is a Touchy Subject - We The Kings
-------------------------------------------------------------------------------

Tuning:Drop D ( Tune down the E string until it sounds the same as the A string 
when you play the 7th Fret) 

G|---------------------------------------------------------------------------|
D|---------------------------------------------------------------------------|
A|3-3-3333-3-3-3333--------------------3-3-3333-3-3-3333---------------------|
D|------------------6-6-6666-6-6-6666--------------------6-6-6666-6-6-6666---|

G|---------------------------------------------------------------------------|
D|---------------------------------------------------------------------------|
A|---------------------------------------------------------------------------|
D|6666\-----6666\------------------------------------------------------------|

G|---------------------------------------------------------------------------|
D|---------------------------------------------------------------------------|
A|333-333-3333-111-111-1111--------------------------------------------------|
D|--------------------------333-333-3333-666-666-6666------------------------|

G|---------------------------------------------------------------------------|
D|---------------------------------------------------------------------------|
A|333333333333331133-11111111111111111---------------------------------------|
D|-------------------------------------3333333333333333-6666666666666666-----|

G|---------------------------------------------------------------------------|
D|---------------------------------------------------------------------------|
A|---------------------------------------------------------------------------|
D|1--1-----3--3-----6666-----------------------------------------------------|

G|---------------------------------------------------------------------------|
D|---------------------------------------------------------------------------|
A|333333333333333333333333---------------------------------------------------|
D|------------------------666666666666666666666666---------------------------|

G|---------------------------------------------------------------------------|
D|---------------------------------------------------------------------------|
A|---------------------------------------------------------------------------|
D|33-333-33-333-66-666-66-666-55-555-55-555-11-------------------------------|

G|---------------------------------------------------------------------------|
D|---------------------------------------------------------------------------|
A|---------------------------------------------------------------------------|
D|11-11-1-1-33-33-3-3--------------------------------------------------------|

G|---------------------------------------------------------------------------|
D|---------------------------------------------------------------------------|
A|---------------------------------------------------------------------------|
D|666666-888888-10101010101010101010-666666-888888-1010101010-888888--x2-----|

G|---------------------------------------------------------------------------|
D|---------------------------------------------------------------------------|
A|---------------------------------------------------------------------------|
D|6666666666666666-6-8-10-5-6666666666666666-6-8-10-5-(x3)--666-666-666-65-5~|

G|---------------------------------------------------------------------------|
D|---------------------------------------------------------------------------|
A|---------------------------------------------------------------------------|
D|666666-888888-10101010101010101010-666666-888888-1010101010-888888--x2-----
|

G|---------------------------------------------------------------------------|
D|---------------------------------------------------------------------------|
A|---------------------------------------------------------------------------|
D|666-666-666-8888-666-666-666-888-(x2)--------------------------------------|

G|---------------------------------------------------------------------------|
D|---------------------------------------------------------------------------|
A|---------------------------------------------------------------------------|
D|666666666666666666666666-88888888 (x2)-------------------------------------|


===========================================
| /  slide up
| \  slide down
| h  hammer-on
| p  pull-off
| ~  vibrato
| +  harmonic
| x  Mute note
===========================================
            
Tabs too difficult? Try these video lessons and learn fast.




comments powered by Disqus
↑ Back to top | Tablatures and chords are parodies/interpretations of the original songs. You may use it for private study, scholarship, research or language learning purposes only