>
 >
Mrs Perfect Girl 1

Mrs Perfect Girl 1 Guitar Tabs

Weston - Mrs Perfect Girl 1 chords, tabs, tablatures, lyrics

Guitar lessons | Add/correct | Request | Top 50 tabs Artists:  A B C D E F G H I J K L M N O P Q R S T U V W X Y Z 0-9

Mrs Perfect Girl 1 Guitar Tabs – Weston

CD, Sheet music, Poster

Do you like Mrs Perfect Girl 1? Share with your friends now
TabsTabs v2
		       MRS. PERFECT GIRL- Weston



CHORDS

    C    G    F

|----------------|
|----------------|
|---5------------|
|---5----5----3--|
|---3----5----3--|
|--------3----1--|


Verse1:

      C              G                 F         G
all i know is that i wanna be by your side every single day of my life
C              G                  F             G
i think its so silly i get tongue tied whenever i'm around you

CHORUS1:

F                      C    G
i know that people say 
F                  C        G
you could find someone much better than 
F                C    G
me but theres no way
F                      C            G
for them to know whats really in my heart

Verse2:
all i know is i wish i was your only guy so we'd be together all the time
and i'd be yours and you'd be mine i hope that i'm not dreaming

CHORUS2:
i know your parents say
that you're too young to be serious about me
but there's no way
for them to know just how we really feel

Solo:

|-----------------------------------------|
|-----------------------------------------|
|-----------------------------------------|
|------2-2-3-3-5-5-3-2---5-3-2------------|
|--3-3-----------------3-------3-0-0-0----|
|--------------------------------------3--|

|-----------------------------|
|-----------------------------|
|-----------------------------|
|--5-5-3-2---5-3-2------------|
|----------3-------3-0-0-0----|
|--------------------------3--|

|---------------------------------------------|
|----------------------------6-5-6-5-6-5-6-5--|
|------------------------5-5-5-5-5-5-5-5-5-5--|
|--------2-3-3-5-3-2--------------------------| repeat the last couple
|----2-3-------------3------------------------| notes a bunch
|--3------------------------------------------|

Outro:

                C       F  G                 C       F   G
just say you'll always       just say you'll always
                C                 F      G     C     G
just say you'll always say you'll always be my girl
                C       F   G       C       F  G        C    
just say you'll always       you'll always       you'll always 
F             G     C                      F      G  
you'll always be my girl you'll be my girl you'll be my girl
			 you'll be my girl you'll be my girl 
			 you'll be my girl you'll be my girl
                         you'll be my mrs. perfect girl

End Riff:

|-------------------|
|--5-6-5-3-5-1-5----|
|----------------5--|
|-------------------|
|-------------------|
|-------------------|

end on C





Comments


Popular Weston tabs & chords
Retarded Bass Tabs
Heather Lewis Chords
Matinee Chords
New Shirt Chords
Record Shop Chords
Heather Lewis Tabs
Matinee Tabs
New Shirt Tabs
Opening Chord 1 Tabs
Retarded Tabs


Song lyrics



↑ Back to top | Tablatures and chords are parodies/interpretations of the original songs. You may use it for private study, scholarship, research or language learning purposes only
© 2014 AZChords.com Contact us | Privacy policy | DMCA | Add/correct tabs | Request tabs | Top 50 tabs